20171120

LA PALOMA BLANCA TAB (FINGERSTYLE)


La Paloma Blanca fingerstyle classical guitar cover played by Milos Reljic
It's arranged in standard tuning for beginner fingerstyle guitar players
Download the TAB under the video



LA PALOMA BLANCA FINGERSTYLE TAB

GP5 + GP6 + PDF >>

Part 1

e---5-------5-------5-5-----5-------4-------4-------4-4-----4-----------
B---5-----5-----5---5-----5-5---5---5-----5-5---5---5-----5-5---5-------
G---6---------------6-----6-6---6---4-----4-4---4---4-----4-4---4-------
D-----------------------------------------------------------------------
A-----------------------------------------------------------------------
E---5---------------5---------------0---------------0-------------------


e---5-------5-------5-5-----5-------4-------4-------4-4-----4-----------
B---5-----5-5---5---5-5---5-5---5---5-----5-5---5---5-5---5-5---5-------
G---6-----6-6---6---6-6---6-6---6---4-----4-4---4---4-4---4-4---4-------
D-----------------------------------------------------------------------
A-----------------------------------------------------------------------
E---5---------------5---------------0---------------0-------------------


e---5-------x---0---0-----------------------0---2-----------------------
B---5-------x---------------2---------2--/3-----------------------------
G---6-------x-----------------------------------------------------------
D-------------------------2---------------------------------------------
A-------------------0---------------0-----------------------------------
E---5-------x-------------------0---------------------------------------



e---4----/5-----2-4---0h2p0-------------------------------7~------------
B-----------------------------3-----------------------------------------
G-------------------------------------1---------------1-/---------------
D-----------------------------------2---------------2-------------------
A-----------------------------2---------------2-------------------------
E---0-------------------------------------0-----------------------------


e---7-----------------/9---5-7~---4---5-4h5p4\-2-0----------------------
B-----------0----------------------------------------3------------------
G-----------7-----------------------------------------------------------
D---------6-----6-------------------------------------------------------
A-----------------------------------------------------------------------
E---0---------------0-----------------0---------------------------------


e-------------------------------0---0-----------------------------------
B---2-------------------------------------------------------------------
G-----------2---------------2---------------2---------------------------
D---------2---------------2---------------2-----------------------------
A---0---------------0---------------0-----------------------------------
E---------------0-------------------------------0-----------------------