20171125

THE BEATLES NO REPLY INSTRUMENTAL GUITAR TAB


The Beatles - No Reply easy instrumental guitar cover played by Eric
Nice guitar instrumental with a black Fender Stratocaster
Download the TAB under the video



THE BEATLES NO REPLY INSTRUMENTAL TAB

GP5 + GP6 + PDF >>

Part 1

e-----------------------------------------------------------------------
B-----5-6-5-------------6-5---------------------------------------------
G-----------7-5-------------7-5-4~----------------5---------------------
D---------------7~--------------------------7-5-7---7-5~----------------
A-----------------------------------------------------------------------
E-----------------------------------------------------------------------


e-----------------------------------------------------------------------
B-----5-6-5-------------6-5-----------------5---------------------------
G-----------7-5-------------7-5-4~--------------7-5~--------------------
D---------------7~------------------------------------------------------
A-----------------------------------------------------------------------
E-----------------------------------------------------------------------


e-----------3-3-3-5~------------------------3-3-3-5~--------------------
B-----------5-5-5-5~------------------------5-5-5-5~--------------------
G-----------------------------------------------------------------------
D-----------------------------------------------------------------------
A-----------------------------------------------------------------------
E-----------------------------------------------------------------------


e-----------------------------------------------------------------------
B-----5-6-5-------------6-5-----------------5---------------------------
G-----------7-5-------------7-5-4~--------------7-5~--------------------
D---------------7~------------------------------------------------------
A-----------------------------------------------------------------------
E-----------------------------------------------------------------------


e-----------------------------------------------------------------------
B-----5-6-5-------------6-5---------------------------------------------
G-----------7-5-------------7-5-4~----------------5---------------------
D---------------7~--------------------------7-5-7---7-5~----------------
A-----------------------------------------------------------------------
E-----------------------------------------------------------------------


e-----------------------------------------------------------------------
B-----5-6-5-------------6-5-----------------5---------------------------
G-----------7-5-------------7-5-4~--------------7-5~--------------------
D---------------7~------------------------------------------------------
A-----------------------------------------------------------------------
E-----------------------------------------------------------------------


e-----------3-3-3-5~------------------------3-3-3-5~--------------------
B-----------5-5-5-5~------------------------5-5-5-5~--------------------
G-----------------------------------------------------------------------
D-----------------------------------------------------------------------
A-----------------------------------------------------------------------
E-----------------------------------------------------------------------


e-----------------------------------------------------------------------
B-----5-6-5-------------6-5-----------------5---------------------------
G-----------7-5-------------7-5-4~--------------7-5~--------------------
D---------------7~------------------------------------------------------
A-----------------------------------------------------------------------
E-----------------------------------------------------------------------

 etc ...