20171207

JD MCPHERSON LET THE GOOD TIMES ROLL SOLO TAB (GUITAR SOLO TAB)


JD McPherson - Let The Good Times Roll solo starts about 1:25 and goes till 2:00
Tiny little electric guitar solo played in standard tuning
Download the TAB under the video



LET THE GOOD TIMES ROLL SOLO TAB

GP5 + GP6 + PDF >>

Solo

e---8-8-7-7-5-5---------------------------------------------------------
B---------------8-8-6-6-5-5-------------8-------10---8------------------
G---------------------------7-7-5-5-7/9--------------7h9----------------
D-----------------------------------------------------------------------
A-----------------------------------------------------------------------
E-----------------------------------------------------------------------
    x x x x x x x x x x x x x x x x


e---8-8-7-7-5-5---------------------------------------------------------
B---------------8-8-6-6-5-5-------------8-------10---8------------------
G---------------------------7-7-5-5-7/9--------------7h9----------------
D-----------------------------------------------------------------------
A-----------------------------------------------------------------------
E-----------------------------------------------------------------------
    x x x x x x x x x x x x x x x x


e---8-8-7-7-5-5---------------------------------------------------------
B---------------8-8-6-6-5-5-------------8-------10---8------------------
G---------------------------7-7-5-5-7/9--------------7h9----------------
D-----------------------------------------------------------------------
A-----------------------------------------------------------------------
E-----------------------------------------------------------------------
    x x x x x x x x x x x x x x x x