20171212

LAS PELOTAS MAS QUE UN DESEO TAB (ACOUSTIC FINGERPICKING GUITAR TAB)


German y Gabi de Las Pelotas play Mas Que Un Deseo acoustic live at MTQN
Beautiful fingerpicking acoustic guitar song in standard tuning with Capo on the 1st fret
Download the TAB under the video



MAS QUE UN DESEO ACOUSTIC TAB

GP5 + GP6 + PDF >>

 - CAPO on the 1st -
Intro

e-----------------------------------------------------------------------
B-----------0-----------3-----------0-----------0-----------------------
G-------0-----0-----0-----0-----0-----0-----0-----0---------------------
D-----4---4-------4---4-------4---4-------4---4-------------------------
A---2-----------2-----------2-----------2-------------------------------
E-----------------------------------------------------------------------


e-----------0-----------------------0-----------------------------------
B-------3-----3-----------------3-----3---------------------------------
G-----2---2-------0---0---0---2---2-------0---0---0---------------------
D---0-----------0---2---4---0-----------0---2---4-----------------------
A-----------------------------------------------------------------------
E-----------------------------------------------------------------------



Verse

e-----------------------------------------------------------------------
B-----------0-----------3-----------0-----------0-----------------------
G-------0-----0-----0-----0-----0-----0-----0-----0---------------------
D-----4---4-------4---4-------4---4-------4---4-------------------------
A---2-----------2-----------2-----------2-------------------------------
E-----------------------------------------------------------------------



e-----------0-----------0-----------0-----------------------------------
B-------3-----3-----3-----3-----3-----3---------------------------------
G-----2---2-------2---2-------2---2-------0---0---0---------------------
D---0-----------0-----------0-----------0---2---4-----------------------
A-----------------------------------------------------------------------
E-----------------------------------------------------------------------


e-----------------------------------------------------------------------
B-----------0-----------0-----------0-----------0-----------------------
G-------0-----0-----0-----0-----0-----0-----0-----0---------------------
D-----4---4-------4---4-------4---4-------4---4-------------------------
A---2-----------2-----------2-----------2-------------------------------
E-----------------------------------------------------------------------


e-----------0-----------0-----------0-----------0-----------------------
B-------3-----3-----3-----3-----3-----3-----3-----3---------------------
G-----2---2-------2---2-------2---2-------2---2-------------------------
D---0-----------0-----------0-----------0-------------------------------
A-----------------------------------------------------------------------
E-----------------------------------------------------------------------