20171223

IMPRESSIONI DI SETTEMBRE TAB (FINGERSTYLE)


PFM - Impressioni di Settembre fingerstyle guitar cover played by Leonardo Crenna
It's arranged in standard tuning and no Capo is used
Download the TAB under the video



IMPRESSIONI DI SETTEMBRE FINGERSTYLE TAB

GP5 + GP6 + PDF >>

Verse

e-----------------------------------------------------------------------
B---------------3-3-3-3~--------3-3-3-----------------------------------
G---------------0-0-0-0---------0-0-2---2-2~---0h2-2~-------------------
D-----------------------------------0-----------------------------------
A---2-------------------------------------------------------------------
E---0-------------------------------------------------------------------


e---0-------------------------------------------------0-----0-----------
B---0---------------------------------------------7/8---0h3---0---------
G---6-----------------------------------------------------------0h2-----
D---7-----------7-7~---7~-----7-7/9-9-----------------------------------
A---0-------------------------------------------------------------------
E---0---------------------------------0---------------------------------


e-----------------------------------------------------------------------
B---3--------------------------------0----------------------------------
G---2---------2-2-2-2~--------2-2/4\-2----------------------------------
D---0--------------------------------2---2-2---0h2-2~-------------------
A---0--------------------------------0----------------------------------
E-----------------------------------------------------------------------



e---------0---------------2---------0---------------------------0-------
B---1---------------3---------------0-------------------------0---------
G---0---------------2---------------0-----------------------0-----------
D---2---------------4---------------2-----------------------------0-----
A---0---------------2---------------2---------------------2-------------
E-----------------------------------0-----------------------------------

 etc ...