20180113

DADDY'S BOLERO TAB (ACOUSTIC GUITAR INSTRUMENTAL TAB)


Burns Ernst plays Daddy's Bolero by Francis Goya on acoustic guitar
Very nice acoustic guitar instrumental song
Download the TAB below



DADDY'S BOLERO ACOUSTIC TAB

GP5 + GP6 + PDF >>

Part 1
         A7              Dm                              A7
e-----------0-1-0h1p0----1------------------0-1-0h1p0----1-0------------
B------/3--------------3---------------/3--------------3----------------
G-----------------------------------------------------------------------
D-----------------------------------------------------------------------
A-----------------------------------------------------------------------
E-----------------------------------------------------------------------


                        Gm                A                Dm
e------0---1-1h3--1--0--6~------------5h6p5----------3-1-0-1p0----------
B--------------------------------------------------------------3--------
G-----------------------------------------------------------------------
D-----------------------------------------------------------------------
A-----------------------------------------------------------------------
E-----------------------------------------------------------------------


                         Dm                              A7
e-----------0-1-0h1p0----1------------------0-1-0h1p0----1-0------------
B------/3--------------3---------------/3--------------3----------------
G-----------------------------------------------------------------------
D-----------------------------------------------------------------------
A-----------------------------------------------------------------------
E-----------------------------------------------------------------------



                        Gm                A                Dm
e------0---1-1h3--1--0--6-------------5h6-5----------3-1-0-1p0----------
B--------------------------------------------------------------3--------
G-----------------------------------------------------------------------
D-----------------------------------------------------------------------
A-----------------------------------------------------------------------
E-----------------------------------------------------------------------

 etc ...