20180218

SOMEWHERE OVER THE RAINBOW INSTRUMENTAL GUITAR TAB

IZ - Over the Rainbow (and Wonderful World) instrumental guitar cover by Burns Ernst
Easy guitar instrumental with a ukulele in the background
Download the TAB under the video



OVER THE RAINBOW INSTRUMENTAL TAB

GP5 + GP6 + PDF >>

Part 1

e-----------------------------------------------------------------------
B-----------------------------------------------------------------------
G-----------------------------------------------------------------------
D-----------------------------------------------------------------------
A---3---/---7-------2-------5--2--5--3-----------3---3------------------
E-----------------------------------------------------------------------


e-----------------------------------------------------------------------
B-----------------------------------------------------------------------
G-----------------------------------------------------------------------
D-----------------------------------------------------------------------
A---3-------3-------2-----2/5--2------0--2--3---------0--3--3--3--3-----
E-----------------------------------------------------------------------


Part 2

e-----------------------------------------------------------------------
B-----------------------------------------------------------------------
G---5-------5-------4--------4---5-----------2--------------------------
D----------------------5--7--------------------------5------------------
A------------------------------------3----------------------------------
E-----------------------------------------------------------------------



e-----------------------------------------------------------------------
B-----------------------------------------------------------------------
G-----------------------------------------------------------------------
D-----------3-------2--2--2-2--2------------------------7-/-10----------
A---0-------------------------------5--2--3-5--/7-7-7-------------------
E-----------------------------------------------------------------------


e-----------------------------------------------------------------------
B-----------------------------------------------------------------------
G-----/9----------------------------------------------------------------
D---------12--10--------------------------------------------------------
A-----------------------------------------------------------------------
E-----------------------------------------------------------------------


e-----------------------------------------------------------------------
B-----------------------------------------------------------------------
G---5---------------4--4--4-7---4-------5-------------------------------
D-----------5-----------------------------------7---5-------------------
A-----------------------------------------------------------------------
E-----------------------------------------------------------------------


e-----------------------------------------------------------------------
B-----------------------------------------------------------------------
G-----------------------------------------------------------------------
D-----------3-------2--2--2-2--2-------------------------7-/-10---------
A---0-------------------------------5--2--3--5--/7-7-7------------------
E-----------------------------------------------------------------------


e-----------------------------------------------------------------------
B-----------------------------------------------------------------------
G-----/9----------------------------------------------------------------
D---------12--10--------------------------------------------------------
A-----------------------------------------------------------------------
E-----------------------------------------------------------------------


Part 3

e-----------------------------------------------------------------------
B-----------------------------------------------------------------------
G-----------------------------------------------------------------------
D---10--10--10-10---10--10-----------9--9-9---9--9--9-9---9--7----------
A-------------------------10--10----------------------------------------
E-----------------------------------------------------------------------


e-----------------------------------------------------------------------
B-----------------------------------------------------------------------
G----------/9----7------------------------------------------------------
D-------7-------------10------------------------------------------------
A-----------------------------------------------------------------------
E-----------------------------------------------------------------------


e-----------------------------------------------------------------------
B-----------------------------------------------------------------------
G------------------------------------------------7----------------------
D---10--10--10-10---10--10-----------9--9-9---9-----9-9---9--7----------
A-------------------------10--10----------------------------------------
E-----------------------------------------------------------------------


e-----------------------------------------------------------------------
B-----------------------------------------------------------------------
G----------/9----7------------------------------------------------------
D-------7-------------10------------------------------------------------
A-----------------------------------------------------------------------
E-----------------------------------------------------------------------


e-----------------------------------------------------------------------
B-----------------------------------------------------------------------
G------------9----------------------------------------------------------
D---10---------------9--9--9-12--9--------------------------------------
A-----------------------------------------------------------------------
E-----------------------------------------------------------------------


e-----------------------------------------------------------------------
B-----------------------------------------------------------------------
G-----------------------------------------------------------------------
D---10-----10--10-------------------------------------------------------
A-----------------------------------------------------------------------
E-----------------------------------------------------------------------






DOWNLOAD THIS TAB IN GUITAR PRO



  • click 'Free Download'
  • add your e-mail address
  • you will get an e-mail with your download links (in a few seconds)
  • download the Guitar Pro 6 tab + GP5 + PDF for free
  • and that's all ...


Guitar Pro: a complete workshop for guitarists at an affordable price