20180224

LP LOST ON YOU TAB (ACOUSTIC GUITAR CHORDS)


LP - Lost On You acoustic guitar chords based on the official version of the song
It's in standard tuning and the strumming pattern is also indicated in the pdf
Download the TAB under the video



L.P. LOST ON YOU ACOUSTIC TAB

GP5 + GP6 + PDF >>

Intro

e-------6---6-6-6---6---6-6---6-6-6------8---8-8-8---8---8-8---8-8-8----
B-------6---6-6-6---6---6-6---6-6-6------8---8-8-8---8---8-8---8-8-8----
G-------6---6-6-6---6---6-6---6-6-6------8---8-8-8---8---8-8---8-8-8----
D-------6---6-6-6---6---6-6---6-6-6------8---8-8-8---8---8-8---8-8-8----
A---8---8---8-8-8---8---8-8---8-8-8--10--10--101010--10--1010--101010---
E---6---6---6-6-6---6---6-6---6-6-6--8---8---8-8-8---8---8-8---8-8-8----
    x       x                        x       x



e-------8---8-8-8-8-8---8-8---8-8-8------8---8-8-8-8-8---8-8---8-8-8----
B-------9---9-9-9-9-9---9-9---9-9-9------9---9-9-9-9-9---9-9---9-9-9----
G-------8---8-8-8-8-8---8-8---8-8-8------8---8-8-8-8-8---8-8---8-8-8----
D---10--10--1010101010--1010--101010-10--10--1010101010--1010--101010---
A---8---8---8-8-8-8-8---8-8---8-8-8--8---8---8-8-8-8-8---8-8---8-8-8----
E-----------------------------------------------------------------------
    x       x                        x       x



e-------6---6-6-6---6---6-6---6-6-6------8---8-8-8---8---8-8---8-8-8----
B-------6---6-6-6---6---6-6---6-6-6------8---8-8-8---8---8-8---8-8-8----
G-------6---6-6-6---6---6-6---6-6-6------8---8-8-8---8---8-8---8-8-8----
D-------6---6-6-6---6---6-6---6-6-6------8---8-8-8---8---8-8---8-8-8----
A---8---8---8-8-8---8---8-8---8-8-8--10--10--101010--10--1010--101010---
E---6---6---6-6-6---6---6-6---6-6-6--8---8---8-8-8---8---8-8---8-8-8----
    x       x                        x       x



e-------8---8-8-8-8-8---8-8---8-8-8------8---8-8-8-8-8---8-8---8-8-8----
B-------9---9-9-9-9-9---9-9---9-9-9------9---9-9-9-9-9---9-9---9-9-9----
G-------8---8-8-8-8-8---8-8---8-8-8------8---8-8-8-8-8---8-8---8-8-8----
D---10--10--1010101010--1010--101010-10--10--1010101010--1010--101010---
A---8---8---8-8-8-8-8---8-8---8-8-8--8---8---8-8-8-8-8---8-8---8-8-8----
E-----------------------------------------------------------------------
    x       x                        x       x






DOWNLOAD THIS TAB IN GUITAR PRO



  • click 'Free Download'
  • add your e-mail address
  • you will get an e-mail with your download links (in a few seconds)
  • download the Guitar Pro 6 tab + GP5 + PDF for free
  • and that's all ...


Guitar Pro: a complete workshop for guitarists at an affordable price