20180318

BOBBY VINTON MR LONELY INSTRUMENTAL GUITAR TAB


Bobby Vinton - Mr Lonely instrumental guitar cover played by Eric
Easy guitar instrumental with backing track
Download the TAB under the video



MR LONELY INSTRUMENTAL TAB

GP5 + GP6 + PDF >>

Part 1

e-----------------------------------------------------------------------
B---------0~----------------------0~------------------------------------
G---------------------1-2-4-------------------1-2-4---------------------
D---2-----------------------1-------------------------------------------
A-----------------------------------------------------------------------
E-----------------------------------------------------------------------


e-----------------------------------------------------------------------
B-------------------------2---------------------------------------------
G---------2~--------2-2-4---4~------------------------------------------
D-----------------------------------------------------------------------
A---4-------------------------------------------------------------------
E-----------------------------------------------------------------------


e-----------------------------------------------------------------------
B---12-----9h10p9-7-----------------------------------------------------
G-------------------9.--------------------------------------------------
D-----------------------------------------------------------------------
A-----------------------------------------------------------------------
E-----------------------------------------------------------------------



e-----------------------------------------------------------------------
B---------0~----------0-0---------0~----------0-0-----------------------
G---1--------------/4-----1----------------/4-----1---------------------
D---------------------------1-------------------------------------------
A-----------------------------------------------------------------------
E-----------------------------------------------------------------------


e-----------------------------------------------------------------------
B-----------------------------------------12~----9-12-9-----------------
G---------2~--------2-2-4-4/6-4~----------------------------------------
D-----------------------------------------------------------------------
A---4-------------------------------------------------------------------
E-----------------------------------------------------------------------


e-----------------------------------------------------------------------
B---7-\-5~----------5-5-7-7/9-7-\-5~------------------------------------
G-----------------------------------------------------------------------
D-----------------------------------------------------------------------
A-----------------------------------------------------------------------
E-----------------------------------------------------------------------




DOWNLOAD THIS TAB IN GUITAR PRO



  • click 'Free Download'
  • add your e-mail address
  • you will get an e-mail with your download links (in a few seconds)
  • download the Guitar Pro 6 tab + GP5 + PDF for free
  • and that's all ...


Guitar Pro: a complete workshop for guitarists at an affordable price