20180304

PAUL MCCARTNEY BLACKBIRD TAB (FINGERPICKING GUITAR TAB)

Paul McCartney sings Blackbird (The Beatles) with a single acoustic guitar
Live version recorded @ Abbey Road studio
Download the TAB under the video



BLACKBIRD FINGERPICKING TAB

GP5 + GP6 + PDF >>

Intro

e-----------------------------------------------------------------------
B---0-----1-----3--/----------------------------------------------------
G------0-----0----------------------------------------------------------
D-----------------------------------------------------------------------
A---------0-----2--/----------------------------------------------------
E---3-------------------------------------------------------------------


e-----------------------------------------------------------------------
B---12----12--12----12----12--12----12----12--12----12----12--12--------
G-------0--------0------0--------0------0--------0------0--------0------
D-----------------------------------------------------------------------
A---10------10------10------10------10------10------10------10----------
E-----------------------------------------------------------------------


Verse

e-----------------------------------------------------------------------
B---0-----1-----3--/----------------------------------------------------
G------0-----0----------------------------------------------------------
D-----------------------------------------------------------------------
A---------0-----2--/----------------------------------------------------
E---3-------------------------------------------------------------------



e-----------------------------------------3-----------5-----------------
B---12----12--12----12----12--12----5-----------7-----------------------
G-------0--------0------0--------0-----0-----0-----0-----0--------------
D-----------------------------------------------------------------------
A---10------10------10------10------3-----4-----5-----6-----------------
E-----------------------------------------------------------------------


e--------------------------------3--------------------------------------
B---8----8-8----8---8-8----7--------------------------------------------
G------0-----0-----0----0-----0-----0-----------------------------------
D-----------------------------------------------------------------------
A---7-----7-----6----6-----5-----4--------------------------------------
E-----------------------------------------------------------------------


e-----------------------------------------------------------------------
B---5----5-5----4----4-4----3----3-3----2----2-2------------------------
G------0-----0-----0-----0-----0-----0-----0-----0----------------------
D-----------------------------------------------------------------------
A---3-----3-----3-----3-----2-----2-----0-----0-------------------------
E-----------------------------------------------------------------------


e-----------------------------------------------------------------------
B---1----1-1----0----0-0----5-----3-----2~---2-2----1----1-1------------
G------0-----0-----0-----0-----0-----0-----0-----0-----0-----0----------
D---0-----0-----------------------------------------0-----0-------------
A---------------------------3-----2-----0-----0-------------------------
E---------------3-----3-------------------------------------------------


e-----------------------------------------------------------------------
B---0----0-0----0-----1-----3--/----------------------------------------
G------0-----0-----0-----0----------------------------------------------
D-----------------------------------------------------------------------
A---------------------0-----2--/----------------------------------------
E---3-----3-----3-------------------------------------------------------






DOWNLOAD THE COMPLETE TAB HERE



  • click 'Free Download'
  • add your e-mail address
  • you will get an e-mail with your download links (in a few seconds)
  • download the Guitar Pro 6 tab + GP5 + PDF for free
  • and that's all ...


Guitar Pro: a complete workshop for guitarists at an affordable price