20180325

THE VIOLENTS A CLOSER WALK TAB (GUITAR INSTRUMENTAL)


The Violents play A Closer Walk - vintage guitar instrumental song
It's played with a classic Fender Stratocaster in standard tuning
Download the TAB under the video



THE VIOLENTS A CLOSER WALK TAB

Part 1

e---0---------------2---------------0---------------2-------------------
B---0---------------0---------------0---------------0-------------------
G---1---------------2---------------1---------------2-------------------
D---2---------------1---------------2---------------1-------------------
A---2---------------2---------------2---------------2-------------------
E---0-------------------------------0-----------------------------------


     ........... ... ... ... ... ... ................................
e---7-----------8---9-------7---6---5-----------------------------------
B-----------------------9-----------------------------------------------
G-----------------------------------------------------------------------
D-----------------------------------------------------------------------
A------ tremolo picking ------------------------------------------------
E-----------------------------------------------------------------------


      ..........  ...  ...  ... ...  ...  ... ... ...................
e---14----------12---11--------9---11---12---9---7----------------------
B-------------------------12--------------------------------------------
G-----------------------------------------------------------------------
D-----------------------------------------------------------------------
A-----------------------------------------------------------------------
E-----------------------------------------------------------------------



      ..........  ...  ...........  ...  ...  ...  ..................
e---16----------12---14-----------16---14---12--------------------------
B------------------------------------------------14---------------------
G-----------------------------------------------------------------------
D-----------------------------------------------------------------------
A-----------------------------------------------------------------------
E-----------------------------------------------------------------------


      ..........  ...  .......  ...  ...  ..........................
e---------------12---11-------12---14---12------------------------------
B---12------------------------------------------------------------------
G-----------------------------------------------------------------------
D-----------------------------------------------------------------------
A-----------------------------------------------------------------------
E-----------------------------------------------------------------------


Part 2

e-----------------------------------------------------------------------
B-----------------------------------------------------------------------
G-----------------------------------------------------------------------
D-----------------------------------------------------------------------
A---2-----------3---4-------2---1---0-----------------------------------
E--------------------------4--------------------------------------------


e-----------------------------------------------------------------------
B-----------------------------------------------------------------------
G-----------------------------------------------------------------------
D---4----------/4--2-1-----------1---1h2--------------------------------
A----------------------------4-------------4\---2-----------------------
E---------------------------0-------------------------------------------


e-----------------------------------------------------------------------
B-----------------------------------------------------------------------
G---1------------------------------1------------------------------------
D---------------2---4---------------4---2-------------------------------
A-------------------------------------------4---------------------------
E-----------------------------------------------------------------------


e-----------------------------------------------------------------------
B-----------------------------------------------------------------------
G-----------------------------------------------------------------------
D---------------2---1-----1-2/---4-\---2--------------------------------
A---2-------------------------------------------------------------------
E-----------------------------------------------------------------------