20180429

JOHN MAYER RED HOUSE INTRO SOLO TAB


John Mayer plays Red House intro solo with a perfect 60's Fender Stratocaster
The video is out of synch but the sound is awesome (half-step down tuning)
Download the TAB under the video



RED HOUSE INTRO SOLO TAB

GP5 + GP6 + PDF >>

eb--------11~-------11~----------------11~-------11~--------------------
Bb-----------------------10~--------------------------10~---------------
Gb--/11~-------11~---------------/11~-------11~------------11-----------
Db----------------------------------------------------------------------
Ab----------------------------------------------------------------------
Eb----------------------------------------------------------------------


eb--------10~-------10~----------------10~-------10~-------10---/11--\--
Bb-----------------------9~---------------------------------------------
Gb--/10~-------10~---------------/10~-------10~-------10~-------/11--\--
Db----------------------------------------------------------------------
Ab----------------------------------------------------------------------
Eb----------------------------------------------------------------------


eb----------------------------------------------------------------------
Bb---10(12)~-----------10(12)~-----------10(12)~------------------------
Gb----------------------------------------------------------------------
Db----------------------------------------------------------------------
Ab----------------------------------------------------------------------
Eb----------------------------------------------------------------------



eb--------------------------------7-10'-7---------7---------------------
Bb---10(12)---------------------7---------------7---10-------7----------
Gb------------(11)(9)---7h9(11)-----------9(11)--------9(11)------------
Db----------------------------------------------------------------------
Ab----------------------------------------------------------------------
Eb----------------------------------------------------------------------


eb---------------------------------------0.-----------------------------
Bb---------------------------------------0.-----------------------------
Gb---9(11)-9p7--------------/7~----------x------------------------------
Db------------9p7-----------/6~-----------------------------------------
Ab---------------9-7h8p7\5----------------------------------------------
Eb------------------------0---------------------------------------------
                          x

eb----------------------------------------------------------------------
Bb----------------------------------------------------------------------
Gb---9(11)---7~---------------------7/8-9~----\-----7.------------------
Db---x-------x--------9p7---------------------------6.------------------
Ab-----------------------9-7---9--7-7/8-9~----\-----7.------------------
Eb----------------------------------------------------------------------


eb---------7----------7----------7-10'---7------------------------------
Bb--------7--10(12)----10p7-----7---------10-7--------------------------
Gb---9(11)-----------------9(11)----------------------------------------
Db----------------------------------------------------------------------
Ab----------------------------------------------------------------------
Eb----------------------------------------------------------------------




DOWNLOAD THIS TAB IN GUITAR PRO



  • click 'Free Download'
  • add your e-mail address
  • you will get an e-mail with your download links (in a few seconds)
  • download the Guitar Pro 6 tab + GP5 + PDF for free
  • and that's all ...


Guitar Pro: a complete workshop for guitarists at an affordable price