20180415

ADELE MILLION YEARS AGO INSTRUMENTAL GUITAR TAB


Adele - Million Years Ago instrumental guitar cover played by Burns Ernst
Easy guitar instrumental with backing track
Download the TAB under the video



BURNS ERNST MILLION YEARS AGO TAB


Part 1

e-----------------------------------------------------------------------
B-----------------------------------------------------------------------
G-------6~--------------------------------------------------------------
D---6---------6-7~----6---6---7~----------------------------------------
A-----------------------9-----------------------------------------------
E-----------------------------------------------------------------------


e-----------------------------------------------------------------------
B-----------------------------------------------------------------------
G-----------------------------------------------------------------------
D---7---7--/9-6~------------6~------------------------------------------
A-------------------9-7-9-----------------------------------------------
E-----------------------------------------------------------------------


e-----------------------------------------------------------------------
B-----------------------------------------------------------------------
G-----------------------------------------------------------------------
D---6-6-6h7-------------------------------------------------------------
A-----------9~----7-6-7---9~----6h7-6-----------------------------------
E---------------------------------------9~------------------------------



e-----------------------------------------------------------------------
B-----------------------------------------------------------------------
G---------6~------------------------------------------------------------
D---6-----------6-7-----6---6---7~--------------------------------------
A-------------------------9---------------------------------------------
E-----------------------------------------------------------------------


e-----------------------------------------------------------------------
B-----------------------------------------------------------------------
G-----------------------------------------------------------------------
D---7-7/9---6~------------6~--------------------------------------------
A-----------------9-7-9-------------------------------------------------
E-----------------------------------------------------------------------


e-----------------------------------------------------------------------
B-----------------------------------------------------------------------
G-----------------------------------------------------------------------
D---6-6-6h7-------------------------------------------------------------
A-----------9~----7-6-7---9~----6-7---6h7p6-----------------------------
E---------------------------------------------9~------------------------


Part 2

e-------9---------------------------------------------------------------
B---9-------9---10-----9----9---10~-------------------------------------
G------------------------11---------------------------------------------
D-----------------------------------------------------------------------
A-----------------------------------------------------------------------
E-----------------------------------------------------------------------


e-----------------------------------------------------------------------
B---10-10---9---------------9~------------------------------------------
G-----------------11-9-11-----------------------------------------------
D-----------------------------------------------------------------------
A-----------------------------------------------------------------------
E-----------------------------------------------------------------------


e-----------------------------------------------------------------------
B---9-9--9--9----------------------------9--9--9------------------------
G-------------11-----9-8-9---11------------------9-----8-9-11---11/13---
D-----------------------------------------------------------------------
A-----------------------------------11-11-------------------------------
E-----------------------------------------------------------------------


e-----9-----------------------------------------------------------------
B---9-----9---10-----9----9---10~---------------------------------------
G----------------------11-----------------------------------------------
D-----------------------------------------------------------------------
A-----------------------------------------------------------------------
E-----------------------------------------------------------------------


e-----------------------------------------------------------------------
B---10-10--10--10/12-9~--------------9~---------------------------------
G--------------------------11-9-11--------------------------------------
D-----------------------------------------------------------------------
A-----------------------------------------------------------------------
E-----------------------------------------------------------------------


e-----------------------------------------------------------------------
B---9-9---9----------------------------9---9---------------------9------
G-------------11-----9-8-9---11----------------11-9-----8-9-11----------
D-----------------------------------------------------------------------
A-----------------------------------11----------------------------------
E-----------------------------------------------------------------------


e-----9-----------------------------------------------------------------
B---9-----9---10-----9----9---10~---------------------------------------
G----------------------11-----------------------------------------------
D-----------------------------------------------------------------------
A-----------------------------------------------------------------------
E-----------------------------------------------------------------------


e-----------------------------------------------------------------------
B---10-10-10/12-9---9-------------9~------------------------------------
G-----------------------11-9-11-----------------------------------------
D-----------------------------------------------------------------------
A-----------------------------------------------------------------------
E-----------------------------------------------------------------------


e-----------------------------------------------------------------------
B---9---9-9----------------------------9--9--9--------------------------
G-------------11-----9-8-9---11----------------9---8--------------------
D------------------------------------------------------11---9/--11~-----
A-----------------------------------11----------------------------------
E-----------------------------------------------------------------------