20180513

LARRY JON WILSON OHOOPEE RIVER BOTTOMLAND TAB


Larry Jon Wilson plays Ohoopee River Bottomland with an acoustic guitar
The main groove is about 5:50 in this video
Download the TAB under the video



OHOOPEE RIVER BOTTOMLAND ACOUSTIC TAB

GP5 + GP6 + PDF >>

Intro

    E  
e--------0-----0-----0-----0---0-0--------------------------------------
B--------x---x-x-x-x-x-x-x-x-x-x-x-x------------------------------------
G-------/9---x-7-x-x-6-x-x-4-x-1-1-x------------------------------------
D--------x---x-x-x-x-x-x-x-x-x-x-x-x------------------------------------
A------/11---x-9-x-x-7-x-x-5-x-2-2-x------------------------------------
E---0-------------------------------------------------------------------


     D
e---/10---10-x-8-8-x-7-x-5-x-3-x-2-2-2----------------------------------
B----x-----x-x-x-x-x-x-x-x-x-x-x-3-3-3----------------------------------
G---/11---11-x-9-9-x-7-x-5-x-4-x-2-2-2----------------------------------
D----0-----------------------------0------------------------------------
A-----------------------------------------------------------------------
E-----------------------------------------------------------------------


    A
e-------0-----0---0-0-----0---0-0---------------------------------------
B-------2-x-x-3-x-5-5-x-x-3---3-3\2-------------------------------------
G-------x-x-x-x-x-x-x-x-x-x---x-x-x-------------------------------------
D-------2-x-x-4-x-5-5-x-x-4---4-4-x-------------------------------------
A---0-----------------------0-------------------------------------------
E-----------------------------------------------------------------------



e-------0-----0---0-0-----0---0-0---------------------------------------
B-------2-x-x-3-x-5-5-x-x-3---3-3\2-------------------------------------
G-------x-x-x-x-x-x-x-x-x-x---x-x-x-------------------------------------
D-------2-x-x-4-x-5-5-x-x-4---4-4-x-------------------------------------
A---0-----------------------0-------------------------------------------
E-----------------------------------------------------------------------


Verse

    A
e-------0-----0---0-0-----0---0-0---------------------------------------
B-------2-x-x-3-x-5-5-x-x-3---3-3\2-------------------------------------
G-------x-x-x-x-x-x-x-x-x-x---x-x-x-------------------------------------
D-------2-x-x-4-x-5-5-x-x-4---4-4-x-------------------------------------
A---0-----------------------0-------------------------------------------
E-----------------------------------------------------------------------


e-----0-0-----0---0-0-0---0---0-0---------------------------------------
B-----2-2-x-x-3-x-5-5-5-x-3---3-3\2-------------------------------------
G-----x-x-x-x-x-x-x-x-x-x-x---x-x-x-------------------------------------
D-----2-2-x-x-4-x-5-5-5-x-4---4-4-x-------------------------------------
A---0-----------------------0-------------------------------------------
E-----------------------------------------------------------------------


e--------0--0---0-----0-0---0---0-0-0-----------------------------------
B------/10-10-x-8-x-x-7-7-x-5---5-5-5-----------------------------------
G--------x--x-x-x-x-x-x-x-x-x---x-x-x-----------------------------------
D------/11-11-x-9-x-x-7-7-x-5---5-5-5-----------------------------------
A---0-------------------------0-----------------------------------------
E-----------------------------------------------------------------------


e-------0-0-0-0-0-0---0---0---0-----------------------------------------
B------/8-8-8-8-8-8-x-7-x-5-x-2-x-2-------------------------------------
G-------x-x-x-x-x-x-x-x-x-x-x-x-x-x-------------------------------------
D------/9-9-9-9-9-9-x-7-x-5-x-2-x-x-------------------------------------
A---0-------------------------------------------------------------------
E-----------------------------------------------------------------------


      D
e---/10---10-x-8-8-x-7-x-7-x-5-x-5-5-5----------------------------------
B-----x----x-x-x-x-x-x-x-x-x-x-x-x-x-x----------------------------------
G---/11---11-x-9-9-x-7-x-7-x-5-x-5-5-5----------------------------------
D-----0----------------------------0------------------------------------
A-----------------------------------------------------------------------
E-----------------------------------------------------------------------


e-----5/8-8-8-8-8-8-8-x-7-x-5-x-2-2-2-----------------------------------
B-----x---x-x-x-x-x-x-x-x-x-x-x-3-3-3-----------------------------------
G-----5/9-9-9-9-9-9-9-x-7-x-5-x-2-2-2-----------------------------------
D-----0---------------------------0-------------------------------------
A-----------------------------------------------------------------------
E-----------------------------------------------------------------------


    A
e-------0-----0---0-0-----0---0-0---------------------------------------
B-------2-x-x-3-x-5-5-x-x-3-x-3-3\2-------------------------------------
G-------x-x-x-x-x-x-x-x-x-x-x-x-x-x-------------------------------------
D-------2-x-x-4-x-5-5-x-x-4-x-4-4-x-------------------------------------
A---0-------------------------------------------------------------------
E-----------------------------------------------------------------------


e-------0-----0---0-0-----0---0-0---------------------------------------
B-------2-x-x-3-x-5-5-x-x-3-x-2-2-x-------------------------------------
G-------x-x-x-x-x-x-x-x-x-x-x-x-x-x-------------------------------------
D-------2-x-x-4-x-5-5-x-x-4-x-2-2-x-------------------------------------
A---0-------------------------------------------------------------------
E-----------------------------------------------------------------------


    E  
e--------0--0---0-----0-----0---0-0-------------------------------------
B--------x--x-x-x-x-x-x-x-x-x-x-x-x-x-----------------------------------
G-------/9--9-x-7-x-x-6-x-x-4-x-1-1-x-----------------------------------
D--------x--x-x-x-x-x-x-x-x-x-x-x-x-x-----------------------------------
A------/11-11-x-9-x-x-7-x-x-5-x-2-2-x-----------------------------------
E---0-------------------------------------------------------------------


      D
e---/10---10-x-x-8-x-7-7-7-x-5-x-2-2-2----------------------------------
B-----x----x-x-x-x-x-x-x-x-x-x-x-3-3-3----------------------------------
G---/11---11-x-x-9-x-7-7-7-x-5-x-2-2-2----------------------------------
D-----0----------------------------0------------------------------------
A-----------------------------------------------------------------------
E-----------------------------------------------------------------------


    A
e-------0-----0---0-0-----0---0---0-------------------------------------
B-------2-x-x-3-x-5-5-x-x-3-x-2-x-0-------------------------------------
G-------x-x-x-x-x-x-x-x-x-x-x-x-x-1-------------------------------------
D-------2-x-x-4-x-5-5-x-x-4-x-2-x-x-------------------------------------
A---0-------------------------------------------------------------------
E-----------------------------------------------------------------------


    E
e-------0-----0---0---0-0-0---------------------------------------------
B-------x-x-x-x-x-x---x-x-x-x-x-x-x-------------------------------------
G-------1-x-x-2-x-4---4-4-4-2-x-1-x-------------------------------------
D-------x-x-x-x-x-x---x-x-x-x-x-x-x-------------------------------------
A-------2-x-x-4-x-5---5-5-5-4-x-2-x-------------------------------------
E---0-------------------------------------------------------------------


    A
e-------0-----0---0-0-----0---0-0---------------------------------------
B-------2-x-x-3-x-5-5-x-x-3---3-3\2-------------------------------------
G-------x-x-x-x-x-x-x-x-x-x---x-x-x-------------------------------------
D-------2-x-x-4-x-5-5-x-x-4---4-4-x-------------------------------------
A---0-----------------------0-------------------------------------------
E-----------------------------------------------------------------------


e-------0-----0---0-0-----0---0-0---------------------------------------
B-------2-x-x-3-x-5-5-x-x-3---3-3\2-------------------------------------
G-------x-x-x-x-x-x-x-x-x-x---x-x-x-------------------------------------
D-------2-x-x-4-x-5-5-x-x-4---4-4-x-------------------------------------
A---0-----------------------0-------------------------------------------
E-----------------------------------------------------------------------




DOWNLOAD THIS TAB IN GUITAR PRO



  • click 'Free Download'
  • add your e-mail address
  • you will get an e-mail with your download links (in a few seconds)
  • download the Guitar Pro 6 tab + GP5 + PDF for free
  • and that's all ...


Guitar Pro: a complete workshop for guitarists at an affordable price