20180507

THE BEATLES IF I FELL INSTRUMENTAL GUITAR TAB


The Beatles - If I Fell instrumental guitar cover played by Eric
Easy guitar instrumental with backing track
Download the TAB under the video



THE BEATLES IF I FELL INSTRUMENTAL TAB

GP5 + GP6 + PDF >>

Part 1

e-----------------------------------------------------------------------
B-----------------------------------------------------------------------
G-----------1---------------1---------------6~----------5-3-------------
D-----1-3-4---1-3-4---1-3-4---1-3-4---1-----------------------3---------
A---------------------------------------4-------------------------------
E-----------------------------------------------------------------------


e-----------------------------------------------------------------------
B-----------------------------------------------------------------------
G-----------1---------------1-----------------------0---2~--------------
D-----1-3-4---1-3-4---1-3-4---1-3-4-----0-2~------4---------------------
A-----------------------------------------------------------------------
E-----------------------------------------------------------------------


Part 2

e-----------------------------------------------------------------------
B-----2-3~--------------5~--------------2~------------------------------
G---4-------------------------------------------------------------------
D-----------------------------------------------------------------------
A-----------------------------------------------------------------------
E-----------------------------------------------------------------------



e-----------------------------------------------------------------------
B-------3~------------------3---2h3p2-----------------------------------
G---4---------------------4-----------4---------------------------------
D-----------------------------------------------------------------------
A-----------------------------------------------------------------------
E-----------------------------------------------------------------------

 etc ...