20180527

THE ELECTROMANIACS ROOT OF LOVE TAB (GUITAR INSTRUMENTAL)


The Electromaniacs - Root Of Love - vintage instrumental guitar song from the 60's
This song is from the album called "Lover's Guitar"
Download the TAB under the video



THE ELECTROMANIACS ROOT OF LOVE TAB

GP5 + GP6 + PDF >>

Part 1

e---3h5p3------------3~-----------7h9p7------------7~-------------------
B--------5---------5-5~----------------9---------9-9~-------------------
G---------5~----------------------------9~------------------------------
D-----------------------------------------------------------------------
A-----------------------------------------------------------------------
E-----------------------------------------------------------------------


e---8h10p8------------10h12p10--------------15h17p15--------------------
B---------10------------------12--------------------17------------------
G-----------10~-----------------12~-------------------17~---------------
D-----------------------------------------------------------------------
A-----------------------------------------------------------------------
E-----------------------------------------------------------------------


e---17h19p17------------------------------------------------------------
B-----------19----------------------------------------------------------
G-------------19~-------------------------------------------------------
D-----------------------------------------------------------------------
A-----------------------------------------------------------------------
E-----------------------------------------------------------------------




Part 2

e-----------------------------------------------------------------------
B-----------------------------------------------------------------------
G-------4~---------4-4~---------4.-2-0----------------------------------
D-------------------------------4.-1-2~---------------------------------
A---4-5------------5-6~-------------------------------------------------
E-------3~--------------------------------------------------------------


e-----------------------------------------------------------------------
B-----------------------------------------------------------------------
G---0-2h4----------7/9--7~-------5/7-5---4~-----------------------------
D---2-----5~------------------------------------------------------------
A---------7~-------9/10-9~-------7/9-7---5~-----------------------------
E-----------------------------------------------------------------------


e-----------------------------------------------------------------------
B-----------------------------------------------------------------------
G---4--4--5~-------5---5~-------5-5-5---4~------------------------------
D---2--4--5~-------4-5-4~-------2-4-2-----------------------------------
A---------------------------------------5~------------------------------
E-----------------------------------------------------------------------


e-----------------------------------------------------------------------
B---7.--8--10~------8-7-8~-----7---5-3~---------------------------------
G---------------------------------------------2-------------------------
D-----------------------9~-----7---5-4~---------4-----------------------
A---5.--7--9~-------7-5---------------------------5~--------------------
E-----------------------------------------------------------------------




DOWNLOAD THIS TAB IN GUITAR PRO



  • click 'Free Download'
  • add your e-mail address
  • you will get an e-mail with your download links (in a few seconds)
  • download the Guitar Pro 6 tab + GP5 + PDF for free
  • and that's all ...


Guitar Pro: a complete workshop for guitarists at an affordable price