20180611

CAN'T TAKE MY EYES OFF YOU TAB (INSTRUMENTAL ELECTRIC GUITAR TAB)

Can't Take My Eyes Off You instrumental electric guitar cover by Take Guitar Channel
Awesome electric guitar solo played in standard tuning
Download the TAB under the video



CAN'T TAKE MY EYES OFF YOU ELECTRIC GUITAR TAB

GP5 + GP6 + PDF >>

Intro

e-----------------------------------------------------------------------
B-----------------------------------------------------------------------
G---4-4.----4-4.----4-4.----4-4.----2-2.----2-2.----2-2.----2-2.--------
D---------4-------4-------4-------4-------2-------2-------2-------------
A-----------------------------------------------------------------------
E-----------------------------------------------------------------------
    x x   x x x   x x x   x x x   x x x   x x x   x x x   x x x


e-----------------------------------------------------------------------
B-----------------------------------------------------------------------
G-----4-4.----4-4.----4-4.----4-4.----2-2.----2-2.----2-2.----2-2.------
D---2-------4-------4-------4-------4-------2-------2-------2----------
A-----------------------------------------------------------------------
E-----------------------------------------------------------------------
    x x x   x x x   x x x   x x x   x x x   x x x   x x x   x x x


e-----------------------------------------------------------------------
B-----------------------------------------------------------------------
G-----4-4.----4-4.----4-4.----4-4.----2-2.----2-2.----2-2.--------------
D---2-------4-------4-------4-------4-------2-------2-------------------
A-----------------------------------------------------------------------
E-----------------------------------------------------------------------
    x x x   x x x   x x x   x x x   x x x   x x x   x x x




Verse

e-----------------------------------------------------------------------
B-----5.--5.--5.--/7----\5-5~-------------------------------------------
G---x-------------------------------------------------------------------
D-----------------------------------------------------------------------
A-----------------------------------------------------------------------
E-----------------------------------------------------------------------


e-----------------------------------------------------------------------
B-----5---5---/7~--------------------\5-5~------------------------------
G---6---6---6-----------------------------------------------------------
D-----------------------------------------------------------------------
A-----------------------------------------------------------------------
E-----------------------------------------------------------------------
    x   x   x


e-----------------------------------------------------------------------
B---5---5-/7-----------------------\5-5~--------------------------------
G-----------------------------------------------------------------------
D-----------------------------------------------------------------------
A-----------------------------------------------------------------------
E-----------------------------------------------------------------------


e-----------------------------------------------------------------------
B---\3-/5\3-/5~--------------\3.--/5\3~---------------------------------
G-----------------------------------------------------------------------
D-----------------------------------------------------------------------
A-----------------------------------------------------------------------
E-----------------------------------------------------------------------


e-----------------------------------------------------------------------
B-----3.---3.---/5-----\3-3~--------------------------------------------
G----x------------------------------------------------------------------
D---x-------------------------------------------------------------------
A-----------------------------------------------------------------------
E-----------------------------------------------------------------------


e-----------------------------------------------------------------------
B-----3.--3.--3-3-----\2-2----------------------------------------------
G----x---------------------4.--/7-6~------------------------------------
D---x-------------------------------------------------------------------
A-----------------------------------------------------------------------
E-----------------------------------------------------------------------


e-----------------------------------------------------------------------
B-----------------------------------------------------------------------
G---6--6-6-----\4-4~----------------------------------------------------
D-----------------------------------------------------------------------
A-----------------------------------------------------------------------
E-----------------------------------------------------------------------


e-----------------------------------------------------------------------
B-----------------------------------------------------------------------
G------4.--2.--1.-/4-----\2-2~------------------------------------------
D---2.------------------------------------------------------------------
A-----------------------------------------------------------------------
E-----------------------------------------------------------------------
    x  x   x   x





DOWNLOAD THIS TAB IN GUITAR PRO



  • click 'Free Download'
  • add your e-mail address
  • you will get an e-mail with your download links (in a few seconds)
  • download the Guitar Pro 6 tab + GP5 + PDF for free
  • and that's all ...


Guitar Pro: a complete workshop for guitarists at an affordable price