20180603

NANCI GRIFFITH BOOTS OF SPANISH LEATHER TAB (FINGERPICKING ACOUSTIC GUITAR TAB)


Nanci Griffith sings Boots of Spanish Leather by Bob Dylan
Her guitar is in standard tuning with Capo on the 2nd fret
Download the TAB under the video



NANCI GRIFFITH BOOTS OF SPANISH LEATHER ACOUSTIC TAB

GP5 + GP6 + PDF >>

 - CAPO on the 2nd -
Intro

e-----------------5-------5-------5-------5-------5-------5-------------
B-------------3-------3-------3-------3-------3-------3-------3---------
G-------0-------0-------0-------0-------0-------0-------0-------0-------
D---0-------4-------0-------0-------0-------0-------0-------0-----------
A-----------------------------------------------------------------------
E-----------------------------------------------------------------------


e---------3-------3-------3---------------2---------------3-------3-----
B-----0-------0-------1-------1-------3-------3-------0-------1---------
G-------0-------0-------0-------0-------2-------0-------0-------0-------
D-----------0-------0h2-----2-------0-------0---------------0h2---------
A-----------------------------------------------------------------------
E---3-----------------------------------------------3-------------------


e-----------------0-----------------------------------------------------
B-----0-------0---------------------------------------------------------
G-------0-------0-------------------------------------------------------
D---0-------------------------------------------------------------------
A-----------------------------------------------------------------------
E-----------2-----------------------------------------------------------



Verse

e---------0-------0-------0---------------0---------------3-------3-----
B-----------------------------------------------------0-------0---------
G-------0-------0-------0-------0-------0-------0-------0-------0-------
D-----------0h2-------------0h2-------------0h2-----0-------------------
A-----------------------------------3-----------------------------------
E---0---------------0---------------------------------------3-----------


e---------3-------3-------3-------3-------0-----------------------------
B-----1-------1-------0-------0-------0-------0-------------------------
G-------0-------0-------0-------0-------0-------0-----------------------
D---0h2-----2-------0---------------0-----------------------------------
A-----------------------------------------------------------------------
E---------------------------3---------------2---------------------------


e---------0---------------2-----------------------3-------3-------3-----
B-----0---------------3-------3-------0-------0-------1-------1---------
G-------0-------0-------2-------0-------0-------0-------0-------0-------
D-----------0h2-----0-------0---------------0-------0h2-----2-----------
A-----------------------------------------------------------------------
E---0-------------------------------3-----------------------------------


e---------3-------3-------0-------0-------------------------------------
B-----0-------0-------0-------0-----------------------------------------
G-------0-------0-------0-------0---------------------------------------
D---0---------------0---------------------------------------------------
A-----------------------------------------------------------------------
E-----------3---------------2-------------------------------------------


e---------0-------0-------0-----------------------0-------3-------3-----
B-----0---------------0---------------1---------------0-------0---------
G-------0-------0-------0-------0-------0-------0-------0-------0-------
D-----------0h2-------------0h2-------------0h2-----0-------------------
A-----------------------------------3-----------------------------------
E---0---------------0---------------------------------------3-----------


e---------3-------3-------3-------3-------0-------0---------------------
B-----1-------1-------0-------0-------0-------0-------------------------
G-------0-------0-------0-------0-------0-------0-----------------------
D---0h2-----2-------0---------------0-----------------------------------
A-----------------------------------------------------------------------
E---------------------------3---------------2---------------------------


e---------0---------------2-----------------------3-------3-------3-----
B-----0---------------3-------3-------0-------0-------1-------1---------
G-------0-------0-------2-------0-------0-------0-------0-------0-------
D-----------0h2-----0-------0---------------0-------0h2-----2-----------
A-----------------------------------------------------------------------
E---0-------------------------------3-----------------------------------


e---------2---------------3-------3---------------0---------------------
B-----3-------3-------0-------1-------0-------0-------------------------
G-------2-------0-------0-------0-------0-------0-----------------------
D---0-------0---------------0h2-----0-----------------------------------
A-----------------------------------------------------------------------
E-------------------3-----------------------2---------------------------




DOWNLOAD THIS TAB IN GUITAR PRO



  • click 'Free Download'
  • add your e-mail address
  • you will get an e-mail with your download links (in a few seconds)
  • download the Guitar Pro 6 tab + GP5 + PDF for free
  • and that's all ...