20180625

THE RECALLS NOBODY'S GUY TAB (ELECTRIC GUITAR TABS)


The Recalls - Nobody's Guy electric guitar line
Old school guitar playing in standard tuning
Download the TAB under the video



THE RECALLS NOBODY'S GUY TAB

GP5 + GP6 + PDF >>

Intro

e-------------------0---------------------------------------------------
B-----------------------------------------------------------------------
G---3'------------------(4)(3)-0----------------------------------------
D-----------------------------------------------------------------------
A-----------------------------------------------------------------------
E---0----------------------------3--------------------------------------


e--------------------------0--------------------------------------------
B-----------------------------------------------------------------------
G-------3'--3'--0---3(4)-----(4)(3)-0-----------------------------------
D-----------------------------------------------------------------------
A-----------------------------------------------------------------------
E---0---0---0---0---0-----------------3---------------------------------


e--------------------------0--------------------------------------------
B-----------------------------------------------------------------------
G-------3'--3'--0---3(4)-----(4)(3)-0-----------------------------------
D-----------------------------------------------------------------------
A-----------------------------------------------------------------------
E---0---0---0---0---0-----------------3---------------------------------



e--------------------------0--------------------------------------------
B-----------------------------------------------------------------------
G-------3'--3'--0---3(4)-----(4)(3)-0-----------------------------------
D-----------------------------------------------------------------------
A-----------------------------------------------------------------------
E---0---0---0---0---0-----------------3---------------------------------


e-----------------------------------------------------------------------
B-----------------------------------------------------------------------
G-----------------------------------------------------------------------
D-------2-----0---------2-----0---------2-----0---------2-----0---------
A---------1h2---0---------1h2---0---------1h2---0---------1h2-----0-----
E---0---------------0---------------0---------------0-------------------


Verse

e-----------------------------------------------------------------------
B-----------------------------------------------------------------------
G-----------------------------------------------------------------------
D-------2-----0---------2-----0---------2-----0---------2-----0---------
A---------1h2---0---------1h2---0---------1h2---0---------1h2-----0-----
E---0---------------0---------------0---------------0-------------------


e-----------------------------------------------------------------------
B-----------------------------------------------------------------------
G-----------------------------------------------------------------------
D-------2-----0---------2-----0---------2-----0---------2-----0---------
A---------1h2---0---------1h2---0---------1h2---0---------1h2-----------
E---0---------------0---------------0---------------0-------------3'----


e-----------------------------------------------------------------------
B-----------------------------------------------------------------------
G-------2-----0---------2-----0---------2-----0---------2-----0---------
D---------1h2---0---------1h2---0---------1h2---0---------1h2-----0-----
A---0---------------0---------------0---------------0-------------------
E-----------------------------------------------------------------------


e-----------------------------------------------------------------------
B-----------------------------------------------------------------------
G-----------------------------------------------------------------------
D---4---4-4---4-4---6---6.--7.------------------------------------------
A---2---2-2---2-2---4---4.--5.------------------------------------------
E---x---x-x---x-x---4---4.--5.------------------------------------------


e-----------------------------------------------------------------------
B-----------------------------------------------------------------------
G-----------------------------------------------------------------------
D-------2-----0---------2-----0---------2-----0---------2-----0---------
A---------1h2---0---------1h2---0---------1h2---0---------1h2-----0-----
E---0---------------0---------------0---------------0-------------------




DOWNLOAD THIS TAB IN GUITAR PRO



  • click 'Free Download'
  • add your e-mail address
  • you will get an e-mail with your download links (in a few seconds)
  • download the Guitar Pro 6 tab + GP5 + PDF for free
  • and that's all ...


Guitar Pro: a complete workshop for guitarists at an affordable price