20180617

TOMMY AND PHIL EMMANUEL IRISH AND SCOTTISH MEDLEY TAB


Tommy and Phil Emmanuel play an Irish - Scottish Medley in Holland - 2001
Phil's guitar playing is fully transcribed + Tommy's chords and harmonies
Download the TAB under the video



IRISH AND SCOTTISH MEDLEY TAB

GP5 + GP6 + PDF >>

#1

e---0-------0-----------0-0h2-0-----0-------------3---------------------
B-----3-0h2---2-0---0h2---------0h2---2-0---0---0---0-------------------
G-----------------2-----------------------2---2-------2-----------------
D-----------------------------------------------------------------------
A-----------------------------------------------------------------------
E-----------------------------------------------------------------------


e-------0-----------0-0h2-0-----0---------------0-----------------------
B---0h2---2-0---0h2---------0h2---0---0-----------3---------------------
G-------------2---------------------1---2~------------------------------
D-----------------------------------------------------------------------
A-----------------------------------------------------------------------
E-----------------------------------------------------------------------


e-------0-----------0-0h2-0-----0-------------3-------------------------
B---0h2---2-0---0h2---------0h2---2-0---0---0---0-----------------------
G-------------2-----------------------2---2-------2---------------------
D-----------------------------------------------------------------------
A-----------------------------------------------------------------------
E-----------------------------------------------------------------------



e-------0-----------0-0h2-0-----0-------------0-------------------------
B---0h2---2-0---0h2---------0h2---0---0---------------------------------
G-------------2---------------------1---2---2-----2---------------------
D-----------------------------------------------------------------------
A-----------------------------------------------------------------------
E-----------------------------------------------------------------------


e-------0-----------0-0h2-0-----0-------------3-------------------------
B---0h2---2-0---0h2---------0h2---2-0---0---0---0-----------------------
G-------------2-----------------------2---2-------2---------------------
D-----------------------------------------------------------------------
A-----------------------------------------------------------------------
E-----------------------------------------------------------------------


e-------0-----------0-0h2-0-----0-------------0---0---------------------
B---0h2---2-0---0h2---------0h2---0---0---------------------------------
G-------------2---------------------1---2---2---------------------------
D-----------------------------------------------------------------------
A-----------------------------------------------------------------------
E-----------------------------------------------------------------------


e---3h5p3p0-2h3p2p0-3h5p3p0-2h3p2p0-----0-------------3-----------------
B-----------------------------------0h2---2-0---0---0---0---------------
G---------------------------------------------2---2-------2-------------
D-----------------------------------------------------------------------
A-----------------------------------------------------------------------
E-----------------------------------------------------------------------


e---3h5p3p0-2h3p2p0-3h5p3p0-2h3p2p0-----0-------------0---0-------------
B-----------------------------------0h2---0---0-------------------------
G-------------------------------------------1---2---2-------------------
D-----------------------------------------------------------------------
A-----------------------------------------------------------------------
E-----------------------------------------------------------------------


e---3h5p3p0-2h3p2p0-3h5p3p0-2h3p2p0-----0-------------3-----------------
B-----------------------------------0h2---2-0---0---0---0---------------
G---------------------------------------------2---2-------2-------------
D-----------------------------------------------------------------------
A-----------------------------------------------------------------------
E-----------------------------------------------------------------------


e---3h5p3p0-2h3p2p0-3h5p3p0-2h3p2p0-----0-------------------------------
B-----------------------------------0h2---0---0-------------------------
G-------------------------------------------1---2~----------------------
D-----------------------------------------------------------------------
A-----------------------------------------------------------------------
E-----------------------------------------------------------------------


#2

e---------------5.------------------------------------------------------
B---------5-7-------8-7-----7-0-----7---------------7-------------------
G---7-------------------9-7-----7-9-----9---9---7-9-----9---9-----------
D---------------------------------------------------------------7-9-----
A-----------------------------------------------------------------------
E-----------------------------------------------------------------------


e-----------------------------------------------------------------------
B-----------7---10---8-7-----7---7--------------------------------------
G---7---7-9--------------9-7-------9-7---------------7------------------
D----------------------------------------9---9---7-9-----9---9---7-9----
A-----------------------------------------------------------------------
E-----------------------------------------------------------------------





DOWNLOAD THE COMPLETE TAB HERE



  • click 'Free Download'
  • add your e-mail address
  • you will get an e-mail with your download links (in a few seconds)
  • download the Guitar Pro 6 tab + GP5 + PDF for free
  • and that's all ...


Guitar Pro: a complete workshop for guitarists at an affordable price