20180716

LOVE LIES ACOUSTIC TAB (JOT SINGH)


Khalid & Normani - Love Lies acoustic cover played by Jot Singh
Great singing with a single acoustic guitar
Download the TAB under the video



LOVE LIES ACOUSTIC TAB

GP5 + GP6 + PDF >>

Intro

e-----------------------------------------------------------------------
B-------------------------3.--------------------------------------------
G-------4---------4-----------------------------------------------------
D-----5---5-----5-------5-----------------------------------------------
A---7---------5-------3-------------------------------------------------
E-----------------------------------------------------------------------


e-----------------------------------------------------------------------
B-------------------------3-x-------------------------------------------
G-------4---------4---------x-------------------------------------------
D-----5---5-----5-------5---x-------------------------------------------
A---7---------5-------3-----x-------------------------------------------
E-----------------------------------------------------------------------


Verse

e-----------------------------------------------------------------------
B-------------------------3-x-------------------------------------------
G-------4---------4---------x-------------------------------------------
D-----5---5-----5-------5---x-------------------------------------------
A---7---------5-------3-----x-------------------------------------------
E-----------------------------------------------------------------------



e-----------------------------------------------------------------------
B-------------------------3-x-------------------------------------------
G-------4---------4---------x-------------------------------------------
D-----5---5-----5-------5---x-------------------------------------------
A---7---------5-------3-----x-------------------------------------------
E-----------------------------------------------------------------------


e-----------------------------------------------------------------------
B-------------------------3-x-------------------------------------------
G-------4---------4---------x-------------------------------------------
D-----5---5-----5-------5---x-------------------------------------------
A---7---------5-------3-----x-------------------------------------------
E-----------------------------------------------------------------------


e-----------------------------------------------------------------------
B-------------------------3-x-------------------------------------------
G-------4---------4---------x-------------------------------------------
D-----5---5-----5-------5---x-------------------------------------------
A---7---------5-------3-----x-------------------------------------------
E-----------------------------------------------------------------------