20180729

MOONLIGHT SHADOW INSTRUMENTAL GUITAR TAB (DAVE MONK)

Maggie Reilly - Moonlight Shadow instrumental guitar cover played by Dave Monk
Easy guitar instrumental with backing track
Download the TAB under the video



MOONLIGHT SHADOW INSTRUMENTAL TAB

GP5 + GP6 + PDF >>

Part 1

e-----------------------------------------------------------------------
B--------------------7--------------------------------------------------
G-----6-8-9~-----9-9---9-8-6~-----6~------------------------------------
D---9-------------------------------------------------------------------
A-----------------------------------------------------------------------
E-----------------------------------------------------------------------


e-----------------------------------------------------------------------
B---------7~-------7-9~---9~---7----------------------------------------
G---8-8-9--------9------------------------------------------------------
D--------------------------------9~-------------------------------------
A-----------------------------------------------------------------------
E-----------------------------------------------------------------------


e-----------------------------------------------------------------------
B----------------7------------------------------------------------------
G-----9~---9-8-9---9-8-6~-----6~----------------------------------------
D---9-------------------------------------------------------------------
A-----------------------------------------------------------------------
E-----------------------------------------------------------------------



e-----------------------------------------------------------------------
B---------7~-------7-9~---9~---7----------------------------------------
G---8-8-9--------9------------------------------------------------------
D--------------------------------9~-------------------------------------
A-----------------------------------------------------------------------
E-----------------------------------------------------------------------


e------------7----------------------------------------------------------
B-----9~---9---10-9-7---7-7h9-7~----------------------------------------
G---------------------9-------------------------------------------------
D---9-------------------------------------------------------------------
A-----------------------------------------------------------------------
E-----------------------------------------------------------------------


e-------------------------------------------7~--------------------------
B---9~-----7----------7-7h9-7~-------7-9~--------10-9~-----7-7h9-7~-----
G------------9~---9-6--------------9------------------------------------
D-----------------------------------------------------------------------
A-----------------------------------------------------------------------
E-----------------------------------------------------------------------


e-----------------------------------------------------------------------
B-----7-9~---7~-----------7~--------------------------------------------
G---9-------------9-8-6-------------------------------------------------
D-----------------------------------------------------------------------
A-----------------------------------------------------------------------
E-----------------------------------------------------------------------




DOWNLOAD THIS TAB IN GUITAR PRO



  • click 'Free Download'
  • add your e-mail address
  • you will get an e-mail with your download links (in a few seconds)
  • download the Guitar Pro 6 tab + GP5 + PDF for free
  • and that's all ...


Guitar Pro: a complete workshop for guitarists at an affordable price