20180723

NOUVELLE VAGUE AND LISET ALEA ALGO FAMILIAR TAB (FINGERPICKING ACOUSTIC GUITAR TAB)


There is a cool acoustic guitar intro in Algo Familiar by Nouvelle Vague & Liset Alea
It's in standard tuning and no Capo is used
Download the TAB under the video



ALGO FAMILIAR ACOUSTIC TAB

GP5 + GP6 + PDF >>

Intro

e-----------------------------------------------------------------------
B-------1------1----------1------1--------------------------------------
G-------------------1-----------------0---------------------------------
D-------3--------3--------3--------3------------------------------------
A-----------------------------------------------------------------------
E---1-------1---------1-------1-----------------------------------------


e-----------------------------------------------------------------------
B-------1------1----------1------1--------------------------------------
G-------------------3-----------------0---------------------------------
D-------2--------2--------2--------2------------------------------------
A---3-------3---------3-------3-----------------------------------------
E-----------------------------------------------------------------------


e-----------------------------------------------------------------------
B-------1------1----------1------1--------------------------------------
G-------------------1-----------------0---------------------------------
D-------3--------3--------3--------3------------------------------------
A-----------------------------------------------------------------------
E---1-------1---------1-------1-----------------------------------------



e-----------------------------------------------------------------------
B-------1------1----------1------1--------------------------------------
G-------------------3-----------------0---------------------------------
D-------2--------2--------2--------2------------------------------------
A---3-------3---------3-------3-----------------------------------------
E-----------------------------------------------------------------------


e-----------------------------------------------------------------------
B-------1------1----------1------1--------------------------------------
G-------------------1-----------------0---------------------------------
D-------3--------3--------3--------3------------------------------------
A-----------------------------------------------------------------------
E---1-------1---------1-------1-----------------------------------------


e-----------------------------------------------------------------------
B-------1------1----------1------1--------------------------------------
G-------------------3-----------------0---------------------------------
D-------2--------2--------2--------2------------------------------------
A---3-------3---------3-------3-----------------------------------------
E-----------------------------------------------------------------------


e-------1------1----------1------1--------------------------------------
B-------------------2---------------------------------------------------
G-------3--------3--------3--------3--0---------------------------------
D-----------------------------------------------------------------------
A---1-------1---------1-------1-----------------------------------------
E-----------------------------------------------------------------------


e-------3------3----------3------3--------------------------------------
B-------------------5---------------------------------------------------
G-------3--------3--------3--------3--0---------------------------------
D-----------------------------------------------------------------------
A---3-------3---------3-------3-----------------------------------------
E-----------------------------------------------------------------------


e-------1------1----------1------1--------------------------------------
B-------------------2---------------------------------------------------
G-------3--------3--------3--------3--0---------------------------------
D-----------------------------------------------------------------------
A---1-------1---------1-------1-----------------------------------------
E-----------------------------------------------------------------------


e-------3------3----------3------3--------------------------------------
B-----------------------------------------------------------------------
G-------3--------3--0-----3--------3--0---------------------------------
D---1-------1---------2-------2-----------------------------------------
A-----------------------------------------------------------------------
E-----------------------------------------------------------------------




DOWNLOAD THIS TAB IN GUITAR PRO



  • click 'Free Download'
  • add your e-mail address
  • you will get an e-mail with your download links (in a few seconds)
  • download the Guitar Pro 6 tab + GP5 + PDF for free
  • and that's all ...


Guitar Pro: a complete workshop for guitarists at an affordable price