20180709

BOBBY VINTON ROSES ARE RED INSTRUMENTAL GUITAR TAB


Bobby Vinton - Roses Are Red instrumental guitar cover played by Eric
Easy guitar instrumental with backing track
Download the TAB under the video



ROSES ARE RED INSTRUMENTAL TAB


Part 1

e-----------------------------------------------------------------------
B-----------------------------------------------------------------------
G------2---0~-----------------------------------------------------------
D-----------------3-3~-----2-2~-----------------------------------------
A-----------------------------------------------------------------------
E-----------------------------------------------------------------------


e-----------------------------------------------------------------------
B-----------------------------------------------------------------------
G------3--2-----0~------------------------------------------------------
D-------------2--------3-3~---------------------------------------------
A-----------------------------------------------------------------------
E-----------------------------------------------------------------------


e-----------------------------------------------------------------------
B-----------------------------------------------------------------------
G------5--3---2-2~-----0-0~-----------3---2h3p2-0-----------------------
D---------------------------------------------------3.------------------
A-----------------------------------------------------------------------
E-----------------------------------------------------------------------



e-----------------------------------------------------------------------
B---------------3~-------3~---------------------------------------------
G---2---3---5----------3------------------------------------------------
D-----------------------------------------------------------------------
A-----------------------------------------------------------------------
E-----------------------------------------------------------------------


e-----------------------------------------------------------------------
B---6--5h6p5-3-1~-------------------------------------------------------
G-----------------------2~----------------------------------------------
D---------------------3-------------------------------------------------
A-----------------------------------------------------------------------
E-----------------------------------------------------------------------


e-----------------------------------------------------------------------
B---1---------------------3.---1----------------------------------------
G------3---2-3~-----2-0------------2.--2h3-0----------------------------
D----------------------------------------------3~-----------------------
A-----------------------------------------------------------------------
E-----------------------------------------------------------------------


Part 2

e-----------------------------------------------------------------------
B-----10----------------------------------------------------------------
G----------12-----10-10~-----9-9~---------------------------------------
D-----------------------------------------------------------------------
A-----------------------------------------------------------------------
E-----------------------------------------------------------------------


e-----------------------------------------------------------------------
B-----11--10-----8~-----------------------------------------------------
G--------------9--------10-10~------------------------------------------
D-----------------------------------------------------------------------
A-----------------------------------------------------------------------
E-----------------------------------------------------------------------


e---8-------------------------------------------------------------------
B------11---10-10~-----8-8~-----------11---10h11p10-8-------------------
G-------------------------------------------------------10.-------------
D-----------------------------------------------------------------------
A-----------------------------------------------------------------------
E-----------------------------------------------------------------------


e------------------10~-------10~----------------------------------------
B---10---11---13-----------11-------------------------------------------
G-----------------------------------------------------------------------
D-----------------------------------------------------------------------
A-----------------------------------------------------------------------
E-----------------------------------------------------------------------


e---13--12---10---------------------------------------------------------
B----------------13~-------10~------------------------------------------
G------------------------10---------------------------------------------
D-----------------------------------------------------------------------
A-----------------------------------------------------------------------
E-----------------------------------------------------------------------


e------------------------------10---------------------------------------
B---13--11---10-11~-----10----------13---10.---11-----------------------
G-------------------------12---------------------12---10~---------------
D-----------------------------------------------------------------------
A-----------------------------------------------------------------------
E-----------------------------------------------------------------------


Part 3

e-----------------------------------------------------------------------
B-----3--1--------------------------------------------------------------
G------------3-2h3p2-0-2~-------0----------0---2~-----------------------
D-----------------------------2-----3.---3------------------------------
A-----------------------------------------------------------------------
E-----------------------------------------------------------------------