20180827

COLTER WALL MOTORCYCLE TAB (ACOUSTIC FINGERPICKING GUITAR TABS)


Colter Wall plays Motorcycle unplugged with a single guitar
Fingerpicking acoustic guitar song in 1 step down tuning with Capo on the 2nd
Download the TAB under the video



COLTER WALL MOTORCYCLE TAB

GP5 + GP6 + PDF >>

Intro

e-----------------------------------------------------------------------
B---------------------------------0-------------------------------0-----
G-----------------0-------------------------------0-------0---2---------
D-------0-------0-------0-------0-------0-------0-------0-------0-------
A-----------------------------------------------------------------------
E---3-------3-------3-------3-------3-------3-------3-------3-----------


e---------3-------------------------------------------------------------
B-----------------------------0-----------------------0-------1---------
G-------------------------0-------0-------0-------0-------0-------------
D-------0-------0-------0-------0-------0-------0---------------2p0-----
A-------------------------------------------------------2---3-----------
E---3-------3-------3-------3-------2h3-----2h3-----3-------------------


e-----------------------------------------------------------------------
B-------------0-----------0---------------------------0-----------------
G---------0-------0--h2-------2---0-------0-------0-------0-------------
D-------0-------0-------0-------0-------0-------0-----------------------
A-------------------------------------------------------2---------------
E---2h3-----3-------2-------2-------2h3-----2h3-----3-------------------



e-------------3-------3-------3-----------------------------------------
B-----------------1---------------------------0-------------------------
G-------------------------0---------------0-------0--h2---0-------------
D-------2-------2-------2-------2p0-----0-------0-------0---------------
A---3---------------3---------------------------------------------------
E-----------3---------------3-------2h3-----3-------2-------------------


e-----------------------------------------------------------------------
B-------------0---------------0---------------0---------------0---------
G-----------------0---------------0---------------0---------------0-----
D-------0-------0-------0-------0-------0-------0-------0-------0-------
A-----------------------------------------------------------------------
E---2h3-----3-------2h3-----3-------2h3-----3-------2h3-----3-----------


Verse

e-----------------------------------------------------------------------
B-------------0-------0-------1---------------0---------------0---------
G-----------------0-------0-------0-------0-------0--h2---2-------0-----
D-------0-------0---------------2-------0-------0-------0-------0-------
A-----------------------2---3-------------------------------------------
E---2h3-----3-------3---------------2h3-----3-------2-------2-----------


e-------------3-------------------------------3-------3-----------------
B---------------------0---------------1---------------------------------
G---------0-------0-------0-------0-------0-------0---------------------
D-------0-------0---------------2-------2-------2-------2p0-------------
A-----------------------2---3---------------3---------------------------
E---2h3-----3-------3---------------3---------------3-------------------


e-----------------------------------------------------3-----------------
B-------------0-----------------------0-------------------0-------------
G-------------------0h2---0-------0-------0---------------0-------------
D-------0-------0-------0-------0-------0-------0-------0---------------
A-------------------------------------------x---------------------------
E---2h3-----3-------2-------2h3-----3-------2h3-----3-------------------






DOWNLOAD THIS TAB IN GUITAR PRO



  • click 'Free Download'
  • add your e-mail address
  • you will get an e-mail with your download links (in a few seconds)
  • download the Guitar Pro 6 tab + GP5 + PDF for free
  • and that's all ...


Guitar Pro: a complete workshop for guitarists at an affordable price