20180813

FLY ME TO THE MOON FINGERSTYLE TAB (JAMES BARTHOLOMEW)


Fly Me To The Moon fingerstyle guitar cover played by James Bartholomew
It's arranged in standard tuning with Capo on the 3rd
Download the TAB under the video



FLY ME TO THE MOON FINGERSTYLE TAB

GP5 + GP6 + PDF >>

 - Capo on the 3rd -

e---------------------------------------------------<5>-----------------
B-----------------------------------------------------------------------
G-----------------------------------------------------------------------
D-----------------------------------------------------------------------
A---------------------------------------x---------------x---------------
E---(x)-----x---(x)-x-----x---(x)-x-----------<5>-----------------------


e-----------------------------------------------------------------------
B-----1----p0---------------------------------1-----p0------------------
G-----0-----------2--p0-----------------2-------------------------------
D-----2---------------------3-------------------------------------------
A---0-------x---3-------x-----5-\---------------------------------------
E-----------------------------------x-----1------x----------------------


e-----------------------------------------------------------------------
B-----------------------------------------------------------------------
G---------2----p0-----------------------3.----3.------------------------
D---------------------3-----2-----------2.----2.------------------------
A-----------------2-----x-----3-----x---3.----3.------------------------
E-----3-----x-----------------------------------------------------------




e-----------------------------------------------------------------------
B-----------------------------------------------------------------------
G-----2.--x-2-0---------------------------------------------------------
D-----3.--x-3-----3.--2.----0-----------------7---\---------------------
A-----3.----------3.--3.----------7-----8-------------------------------
E-----1.----x---1-------x-----7-----x-----7-----x-----------------------


e-----------------------------------------------------------------------
B-----------------------------------------------------------------------
G---------------0-------------------------------------------------------
D---------------------------0-------------------------------------------
A---------------------8p7---------------4.----4-x-----------------------
E-----0-----x-----0-----x-----8-\---x-----------------------------------


e---------5.----5-----5-----------------8.----7.------------------------
B-----6---6.----6-----6-----3-----3-----0.----0.------------------------
G-----5---5.----5-----5-----4-----4-----9.----7.------------------------
D-----7---------7-----7-----3-----3-------------------------------------
A---5-------x---5-----5-------------x-----------x-----------------------
E-----------------------x-----3-----------------------------------------


e-----3---------------3-------0---------------(x)-----------------------
B-----0---------------0-------1---------------(x)-----------------------
G-----5---------------5-------2---------------(x)-----------------------
D-----------------------------------------------------------------------
A-----3-----x---3-------------------------------------------------------
E-----------------------x-----1-----x---1---------x---------------------


e-----------------------------------------5--p3-------------------------
B---------6-----6-------------------------3---------6-------------------
G-----5---------------5-----4-----4-------4-----------------------------
D-----7---------------------3-----3-------------------------------------
A-----5-----------5---------5-----5-------------------------------------
E-----------x-----------x-----3-----x---3-------x-----------------------


e-----------------------------------------------------------------------
B---------6-----5-----5-------------------------------------------------
G---------5-----5-----5-------7.--x-8---9-\-----x-----------------------
D---------5-----5-----5-------x---x-x---x-----0-x-----------------------
A-----3-----x-----3-----x-----5.--x-6---7-\---x-x-----------------------
E-----------------------------------x---0-------x-----------------------






DOWNLOAD THIS TAB IN GUITAR PRO



  • click 'Free Download'
  • add your e-mail address
  • you will get an e-mail with your download links (in a few seconds)
  • download the Guitar Pro 6 tab + GP5 + PDF for free
  • and that's all ...