20180820

JIMI HENDRIX LOVER MAN SOLO TAB (ELECTRIC GUITAR SOLO TABS)

Jimi Hendrix - Lover Man - the main solo part starts about 0:55 in this version
Great electric guitar solo in half-step down tuning
Download the TAB under the video



JIMI HENDRIX LOVER MAN SOLO TAB

GP5 + GP6 + PDF >>

 (0:55 - 1:45)

eb----------------------------------------------------------------------
Bb----------------------------------------------------------------------
Gb--9(11)---9-7-----------------------9(11)---9-7-----------------------
Db--------------9-7-9.-----9.-----9.--------------9-7-9.-----9.-----9.--
Ab------------------x------x------x-------------------x------x------x---
Eb------------------7.-----7.-----7.------------------7.-----7.-----7.--


eb----------------------------------------------------------------------
Bb----------------------------------------------------------------------
Gb--9(11)---9-7-----9(11)---9-7-----9(11)---9-7-----9(11)---9-7---------
Db--------------9-7-------------9-7-------------9-7-------------9-7-----
Ab----------------------------------------------------------------------
Eb----------------------------------------------------------------------


eb----------------------------------------------------------------------
Bb----------------------------------7-----------------------------------
Gb--9(11)---9-7-----9(11)---9-7-----9(11)---9-7-------------------------
Db--------------9-7-------------9-7-------------9-7---------------------
Ab----------------------------------------------------------------------
Eb----------------------------------------------------------------------




eb---7------------------------------------------------------------------
Bb---10(12)---10-7---7--------------------------------------------------
Gb-----------------9---9-7----------------------------------------------
Db-------------------------9--------------------------------------------
Ab----------------------------------------------------------------------
Eb----------------------------------------------------------------------


eb-------------------7--------------------------------------------------
Bb-------------------10(12)---10-7--------------------------------------
Gb---9(11)---9-7-------------------9(11)---9-7--------------------------
Db---------------9-7---------------------------9-7----------------------
Ab----------------------------------------------------------------------
Eb----------------------------------------------------------------------


eb----------------------------------------------------------------------
Bb-------------------10(12)---(10)-7------------------------------------
Gb---9(11)---9-7---7-----------------9(11)---9-7------------------------
Db---------------9-------------------------------9-7--------------------
Ab----------------------------------------------------------------------
Eb----------------------------------------------------------------------


eb----------------------------------------------------------------------
Bb-------------------10(12)---10-7---------7----------------------------
Gb---9(11)---9-7---7-----------------------7---9---9(11)---7---9p7------
Db---------------9-----------------9~--9p7-------------------------9~---
Ab----------------------------------------------------------------------
Eb----------------------------------------------------------------------


eb----------------------------------------------------------------------
Bb----------------------------------------7-----------------------------
Gb---7'-----------------------------------7-----------------------------
Db--------7---9-----------------------7-------7-------------------------
Ab------------------------7---8---9---------------9---8p7---------------
Eb----------------0---------------------------------------10'---7.------





DOWNLOAD THE COMPLETE SOLO TAB HERE



  • click 'Free Download'
  • add your e-mail address
  • you will get an e-mail with your download links (in a few seconds)
  • download the Guitar Pro 6 tab + GP5 + PDF for free
  • and that's all ...


Guitar Pro: a complete workshop for guitarists at an affordable price