20180804

SWEET CHILD 'O MINE SOLO TAB (ACOUSTICIAN)


Guns 'N Roses - Sweet Child 'O Mine guitar solo cover played by Acoustician
Amazing acoustic guitar playing in standard tuning
Download the TAB under the video



SWEET CHILD 'O MINE ACOUSTIC SOLO TAB

GP5 + GP6 + PDF >>

e---16/18~~~--------------------14.--13------13h14p13\11~---------------
B---x-------------------------------------------------------------------
G---x-------------------------------------------------------------------
D-----------------------------------------------------------------------
A-----------------------------------------------------------------------
E-----------------------------------------------------------------------


e---14.--13~------13h14p13p11\10~------11------/13.---------------------
B-----------------------------------------------------------------------
G-----------------------------------------------------------------------
D-----------------------------------------------------------------------
A-----------------------------------------------------------------------
E-----------------------------------------------------------------------


e---11--\9--------------------------------------------------------------
B------------11.--11--\9------------------------------------------------
G--------------------------11.--10--h11.--8~----------------------------
D-----------------------------------------------------------------------
A-----------------------------------------------------------------------
E-----------------------------------------------------------------------



e-----------------------------------------------------------------------
B---------9-12.--11~------11h12p11-9~-----------------------------------
G---10h11---------------------------------------------------------------
D-----------------------------------------------------------------------
A-----------------------------------------------------------------------
E-----------------------------------------------------------------------


e------------------------------------------------------14/16-----14\----
B--12/14-12-----\11.--11~-----------11h12-11------\9.-------------------
G-----------------------------------------------------------------------
D-----------------------------------------------------------------------
A-----------------------------------------------------------------------
E-----------------------------------------------------------------------


e-----------------------------------------------------------------------
B-----------------------------------------------------------------------
G---10/11\10~------8.--8~-------------10/11-10~------8.--8------8~------
D-----------------------------------------------------------------------
A-----------------------------------------------------------------------
E-----------------------------------------------------------------------


e-----------------------------------------------------------------------
B-----------------------------------------------------------------------
G---7~--------8/10~---------10h11-10------8.------------------8~--------
D---------------------------------------------9~----8-----9-------------
A-----------------------------------------------------------------------
E-----------------------------------------------------------------------