20180930

BILLY GIBBONS THUNDERBIRD SOLO TAB (LIVE FROM DARYL'S HOUSE)


Billy Gibbons (ZZ Top) and friends play Thunderbird live at Daryl's House
There is an amazing blues solo around 1:30 ...
Download the TAB under the video



BILLY GIBBONS THUNDERBIRD SOLO TAB

GP5 + GP6 + PDF >>

Solo at 1:30

e-----------------------------------------------------------------------
B------11(13)~~~--------------------------------------------------------
G-----------------------------------------------------------------------
D-----------------------------------------------------------------------
A-----------------------------------------------------------------------
E-----------------------------------------------------------------------


e---8------------------------------8------------------8-------------8.--
B-----11p8----8----11(13)~---------------------11-------11(13)~---------
G----------10-----------------------------------------------------------
D---------------10------------------------------------------------------
A-----------------------------------------------------------------------
E-----------------------------------------------------------------------


e----------8------------------8-----------------------------------------
B---11'-------11(13)~-----------11p8------------------------------------
G------------------------------------10(12)-----10--8~------------------
D-----------------------------------------------------------------------
A-----------------------------------------------------------------------
E-----------------------------------------------------------------------



e-----------------------------------------------------------------------
B---------10-p8---------------------------------------------------------
G---10-p8-------8-------------------------------------------------------
D------------------10~-------7.-----------------------------------------
A-----------------------------------------------------------------------
E-----------------------------------------------------------------------


e-----------------------------------------------------------------------
B-----------------------------------------------------------------------
G---10(12)--(10)p8------------------------------------------------------
D-----------------------10p8--------------------------------------------
A----------------------------10-8-p6.-----------------------------------
E-----------------------------------------------------------------------


e-----------------------------------------------------------------------
B---13-13~-----------13-----13--15-(17)---------------------------------
G---14--------14.--------14------------------------  etc.  -------------
D---x-------------------------------------------------------------------
A-----------------------------------------------------------------------
E-----------------------------------------------------------------------






DOWNLOAD THE COMPLETE SOLO TAB HERE



  • click 'Free Download'
  • add your e-mail address
  • you will get an e-mail with your download links (in a few seconds)
  • download the Guitar Pro 6 tab + GP5 + PDF for free
  • and that's all ...


Guitar Pro: a complete workshop for guitarists at an affordable price