20180916

YOU'LL NEVER WALK ALONE INSTRUMENTAL GUITAR TAB (DAVE MONK)


You'll Never Walk Alone instrumental guitar cover played by Dave Monk
Easy guitar instrumental with backing track
Download the TAB under the video



YOU'LL NEVER WALK ALONE INSTRUMENTAL TAB

GP5 + GP6 + PDF >>


e-----------------------------------------------------------------------
B-----5-3---------------------5-3---------------------------------------
G---------5~----------------------5~------------------------------------
D-----------------------------------------------------------------------
A-----------------------------------------------------------------------
E-----------------------------------------------------------------------


e-----------------------------------------------------------------------
B---5/--6-/8~-----------------------------------------------------------
G------------------------------7---7~-----------------------------------
D-----------------------------------------------------------------------
A-----------------------------------------------------------------------
E-----------------------------------------------------------------------


e-----------------------------------------------------------------------
B---5h6-6~---------------------8-6-5~-----------------------------------
G-----------------------------------------------------------------------
D-----------------------------------------------------------------------
A-----------------------------------------------------------------------
E-----------------------------------------------------------------------



e-----------------------------------------------------------------------
B---8-5-----------------------------------------------------------------
G-------7~--------------------------------------------------------------
D-----------------------------------------------------------------------
A-----------------------------------------------------------------------
E-----------------------------------------------------------------------


e-----------------------------------------------------------------------
B-----5-6~---------------------6----------------------------------------
G---7------------------------7---7~-------------------------------------
D-----------------------------------------------------------------------
A-----------------------------------------------------------------------
E-----------------------------------------------------------------------


e---3/5-5~------------------5-------------------------------------------
B-------------------------8---8-6~--------------------------------------
G-----------------------------------------------------------------------
D-----------------------------------------------------------------------
A-----------------------------------------------------------------------
E-----------------------------------------------------------------------


e-----5-6~-----------5-----/8---8-----------------------5---------------
B---8-----------------------------8~----------6-----------5~------------
G-----------------------------------------------------------------------
D-----------------------------------------------------------------------
A-----------------------------------------------------------------------
E-----------------------------------------------------------------------

 etc ...