20180923

MAIDEN ACOUSTIC JUDAS BE MY GUIDE TAB (ACOUSTIC GUITAR SOLO TABS)


Maiden Acoustic - Judas Be My Guide - the main solo part starts about 2:22
Great acoustic guitar solo in standard tuning
Download the TAB under the video



MAIDEN ACOUSTIC JUDAS BE MY GUIDE SOLO TAB


(2:22 - 2:45)

e-----------------------------------------------------------------------
B---5h6p5---------------------------------------------------------------
G---------5-------------------------------------------------------------
D-----------5h7-5---3---2---3---0---------------------------------------
A-----------------------------------------------------------------------
E-----------------------------------------------------------------------


e---------------------------------------8-------------------------------
B---------------1--/3---3--/6---5---6-------5---6---5h6p5---------------
G---------0h2h3-------------------------------------------5---7~~~------
D---0h2h3---------------------------------------------------------------
A-----------------------------------------------------------------------
E-----------------------------------------------------------------------


e-----5-8.--6-5h6p5---5-----------------5h6/8-8-10~---\-----------------
B----6--------------8----6--8--5--6--8----------------------------------
G---7-------------------------------------------------------------------
D-----------------------------------------------------------------------
A-----------------------------------------------------------------------
E-----------------------------------------------------------------------



e---------10---12---13---12---10.--8------------------------------------
B---/10-----------------------------------------------------------------
G-----------------------------------------------------------------------
D-----------------------------------------------------------------------
A-----------------------------------------------------------------------
E-----------------------------------------------------------------------


e---5h8p5---5-----------------------------------------------------------
B---------8-----8---6---5---6---6/8~-------6---5------------------------
G--------------------------------------------------5/7~~~---------------
D-----------------------------------------------------------------------
A-----------------------------------------------------------------------
E-----------------------------------------------------------------------

 etc ...