20181024

STEVE TERREBERRY CARELESS WHISPER TAB (FULL)


George Michael - Careless Whisper electric guitar cover by Steve Terreberry
It's arranged in standard tuning with backing track
Download the TAB under the video



CARELESS WHISPER ELECTRIC GUITAR TAB

GP5 + GP6 + PDF >>

Intro

e-----------------------------------------------------------------------
B-----------------------------------------------------------------------
G----------5--/7~~~-----------------------------------------------------
D----5-5-7--------------------------------------------------------------
A-----------------------------------------------------------------------
E-----------------------------------------------------------------------
     x x x

e-----------------------------------------------------------------------
B-----------------------------------------------------------------------
G----5/7\5--------------------------------------------------------------
D----------5/7\5~~~-----------------------------------------------------
A-----------------------------------------------------------------------
E-----------------------------------------------------------------------


e-----------------------------------------------------------------------
B-----------------------------------------------------------------------
G--------5---/9~-------10---\7~~~---------------------------------------
D----5-7----------------------------------------------------------------
A-----------------------------------------------------------------------
E-----------------------------------------------------------------------
     x x


e-----------------------------------------------------------------------
B-----------------------------------------------------------------------
G----5h7-/9~-------10---\7~~~-------------------------------------------
D-----------------------------------------------------------------------
A-----------------------------------------------------------------------
E-----------------------------------------------------------------------


e-----------------------------------------------------------------------
B-----------------------------------------------------------------------
G----5h7-/12~-------14---\10~~~--------------10h12p10-9~------10~-------
D-----------------------------------------------------------------------
A-----------------------------------------------------------------------
E-----------------------------------------------------------------------


e-----------------------------------------12----------------------------
B-----------10-11-13-11-10-------11-13-15----15-13----------------------
G---9-10-12----------------12-14----------------------------------------
D-----------------------------------------------------------------------
A-----------------------------------------------------------------------
E-----------------------------------------------------------------------


Main melody

e-----------------------------------------------------------------------
B---15(17)---15------------15(17)-----15--------------------------------
G---------------14~----------------------14~----------------------------
D---------------------15-----------------------15~----------------------
A-------------------------------------------------------------- etc. ---
E-----------------------------------------------------------------------






DOWNLOAD THIS TAB IN GUITAR PRO



  • click 'Free Download'
  • add your e-mail address
  • you will get an e-mail with your download links (in a few seconds)
  • download the Guitar Pro 6 tab + GP5 + PDF for free
  • and that's all ...


Guitar Pro: a complete workshop for guitarists at an affordable price