20181007

JOHN HIATT NO WICKED GRIN TAB (ACOUSTIC)


John Hiatt plays No Wicked Grin live at WUKY radio station
Fingerpicking acoustic guitar song in standard tuning with Capo on the 2nd fret
Download the TAB under the video



JOHN HIATT NO WICKED GRIN TAB

GP5 + GP6 + PDF >>

 - CAPO on the 2nd -
Intro

e---0---1-3-----------------------0-------------------------------------
B---------------3-----------1---3-------------1-------------------------
G-------------0-------0---0-----------2-----------0---------------------
D-----------2-------0---0-------2---0-------3---3-----------------------
A---3-----------------------0-------------------------------------------
E---------------3-----------------------1-------------------------------


e-----------------------------------------------------------------------
B-------1-------0---1---3---------1-----1-------------------------------
G-------0-----0-----------0-----0-----0-----------0---------------------
D-------2---2-----------------3-----3-------2---2-----------------------
A---3---------------0---2---3-----------3-------------------------------
E---------------3-------------------------------------------------------


Verse

e---0---1-3-------------------------0-----------------------------------
B---------------3-----------1---3-------------1-------------------------
G-------------0-----------0-------------2---------0---------------------
D-----------2-------0---0-------------------3---3-----------------------
A---3-----------------------0-------------------------------------------
E---------------3-----------------------1-------------------------------



e---------------------0-----------------1-------------------------------
B-------1-----------3-------3-------------------------------------------
G-------------0-----------0-----------0-------0---0---------------------
D-----------2-----------2-------0---0-------0---0-----------------------
A---3-----------3-------------------------------------------------------
E---------------------------3-----------3-------------------------------


e---0---1-3-----------------------0-------------------------------------
B---------------3-----------1---3-------1-----1-------------------------
G-------------0-------0---0-----------0-----------0---------------------
D-----------2-------0---0-----------2-------3---3-----------------------
A---3-----------------------0-------------------------------------------
E---------------3-----------------------1-------------------------------


e-----------------------------------------------------------------------
B-------1-------0---1---3---------1-----1-------------------------------
G-------------0-----------0-----0-----0-----------0---------------------
D-------2---2-----------------3-----3-------2---2-----------------------
A---3---------------0---2---3-----------3------------------  etc.  -----
E---------------3-------------------------------------------------------

 etc ...