20181014

NOW AND FOREVER FINGERSTYLE TAB (TOMI PALDANIUS)


Richard Marx - Now And Forever acoustic fingerstyle guitar cover by Tomi Paldanius
It's arranged in standard tuning and no Capo is used
Download the TAB under the video



NOW AND FOREVER FINGERSTYLE TAB

GP5 + GP6 + PDF >>

Intro

e-----------3-----------------------------------3-----------------------
B---0-------0-------0---1--/3.--1---------------1-----------1p0---------
G---0---------------0---0-------0-----------0-------------------0-------
D-------0-------0-----------------------2---------------2---------------
A-----------------------------------------------------------------------
E---3-------------------------------3-----------------------------------


e-----------3-----------------------------------3-----------------------
B---0-------0-------0---1--/3.--1---------------1-----------------------
G---0---------------0---0-------0-----------0---------------0-----------
D-------0-------0-----------------------2---------------2-------2-------
A-----------------------------------------------------------------------
E---3-------------------------------3-----------------------------------


Part 1

e-----------------------------------------------------------------------
B-----------------------------------0-------0-------------------0-------
G-----------0-------------0-----2-----------0---------------2-----------
D-------0-------0---4-------------------2-------2-------2---------------
A-------------------5---------------------------------------------------
E---3---------------2---------------0---------------0-------------------



e-----------------------------------------------------------------------
B---0h1-----1-------0-----1----p0---------------3-----------------------
G-----------2-------0---------------2-------------------2-------2-------
D-------2-------2---------------------------4---------------4-----------
A---0-----------------------------------5-------------------------------
E-------------------3---------------------------------------------------


e-----------------------------------------------------------------------
B-------------------------1h3---1---0---------------------------0-------
G-----------0-------2-----------------2p0---------------0---2-----------
D-------0-------0-------------------------------0--h2-------------------
A------------------------------------------------------------  etc.  ---
E---3---------------2---------------0-----------------------------------






DOWNLOAD THIS TAB IN GUITAR PRO



  • click 'Free Download'
  • add your e-mail address
  • you will get an e-mail with your download links (in a few seconds)
  • download the Guitar Pro 6 tab + GP5 + PDF for free
  • and that's all ...


Guitar Pro: a complete workshop for guitarists at an affordable price