20181111

BOYCE AVENUE GIRLS LIKE YOU TAB (ACOUSTIC)


Maroon 5 - Girls Like You acoustic cover played by Boyce Avenue
It's arranged with a single acoustic guitar in 1 step down tuning
Download the TAB under the video



GIRLS LIKE YOU ACOUSTIC TAB

GP5 + GP6 + PDF >>

- 1 step down tuning -
Intro

d-----------------------------------------------------------------------
A-----------------------------------------------------------------------
F-----------------------------------------------------------------------
C-------5-5-5-5-5-5-5---x-3---x-2-------5-5-5-5-5-5-5---x-7---x-2-------
G---3-------------------------------3-----------------------------------
D-----------------------------------------------------------------------
    x   x x x x x x x   x x   x x   x   x x x x x x x   x x   x x


d-----------------------------------------------------------------------
A-----------------------------------------------------------------------
F-----------------------------------------------------------------------
C-------5-5-5-5-5-5-5---x-3---x-2---0---x-2-x-2-0---0---x-2-x-2-0-------
G---3-------------------------------------------------------------------
D-----------------------------------------------------------------------
    x   x x x x x x x   x x   x x   x   x x x x x   x   x x   x x


Verse

d-----------------------------------------------------------------------
A-----------------------------------------------------------------------
F---5-----------------------------2-------------------------------------
C---5--------------5--------------2---------------3---------------------
G---3--------------5--------------0---------------3---------------------
D------------------3------------------------------1---------------------



d-----------------------------------------------------------------------
A-----------------------------------------------------------------------
F---5-----------------------------2-------------------------------------
C---5--------------5--------------2---------------3---------------------
G---3--------------5--------------0---------------3---------------------
D------------------3------------------------------1---------------------


d-----------------------------------------------------------------------
A---1--------------0--------------1---------------1---------------------
F---0--------------0--------------2---------------2---------------------
C---2--------------0--------------2---------------3---------------------
G---3-----------------------------0-------------------------------------
D------------------3------------------------------1---------------------


d-----------------------------------------------------------------------
A---1--------------0--------------1---------------1---------------------
F---0--------------0--------------2---------------2---------------------
C---2--------------0--------------2---------------3---------------------
G---3-----------------------------0-------------------------------------
D------------------3------------------------------1---------------------


Chorus

d-----------------------------------------------------------------------
A-----------5---------------3---------------5---------------6-----------
F--------------5---------------4---------------5---------------5--------
C-------5---------5-----5---------5-----7---------7-----7---------7-----
G---3-----------------------------------------------8-------------------
D-------------------3---------------5-----------------------------------


d-----------------------------------------------------------------------
A-----------5---------------3---------------5---------------6-----------
F--------------5---------------4---------------5---------------5--------
C-------5---------5-----5---------5-----7---------7-----7---------7-----
G---3-----------------------------------------------8-------------------
D-------------------3---------------5-------------------------- etc. ...






DOWNLOAD THIS TAB IN GUITAR PRO



  • click 'Free Download'
  • add your e-mail address
  • you will get an e-mail with your download links (in a few seconds)
  • download the Guitar Pro 6 tab + GP5 + PDF for free
  • and that's all ...


Guitar Pro: a complete workshop for guitarists at an affordable price