20181118

B'Z FRICTION TAB (ELECTRIC GUITAR TABS)


B'z - Friction electric guitar cover played by "Terrani"
Great cover with backing track
Download the TAB below



B'Z FRICTION TAB

GP5 + GP6 + PDF >>

Intro

e-----------------------------------------------------------------------
B-----------------------------------------------------------------------
G----/4-2---------------------------------------------------------------
D---------4-2-----------4-0-4-2-0------------4-0-4-2-0------------------
A-------------5-4-2-0-2-----------4'-0-2-0-2-----------4'-0-------------
E-----------------------------------------------------------------------


e-----------------------------------------------------------------------
B-----------------------------------------------------------------------
G-----------------------------------------------------------------------
D---------4-0-4-2-0------------4-0-4-2-0--------------------------------
A---2-0-2-----------4'-0-2-0-2-----------4'-0---------------------------
E-----------------------------------------------------------------------


e-----------------------------------------------------------------------
B---12-----------10-----------7-----------5-----------------------------
G---14(16)~~~----12(14)~~~----9(11)~~~----7(9)~~~-----------------------
D-----------------------------------------------------------------------
A-----------------------------------------------------------------------
E-----------------------------------------------------------------------



e-----------------------------------------------------------------------
B---12-----------10-----------7-----------5-----------------------------
G---14(16)~~~----12(14)~~~----9(11)~~~----7(9)~~~-----------------------
D-----------------------------------------------------------------------
A-----------------------------------------------------------------------
E-----------------------------------------------------------------------


e-----------------------------------------------------------------------
B---15-----------14-----------12-----------10---------------------------
G---17(19)~~~----16(18)~~~----14(16)~~~----12(14)~~~--------------------
D-----------------------------------------------------------------------
A-----------------------------------------------------------------------
E-----------------------------------------------------------------------


Verse

e-----------------------------------------------------------------------
B-----------------------------------------------------------------------
G-----------------------------------------------------------------------
D---4---4-4-4---------------------2-2---2-2-2---------------------------
A---2---2-2-2---------------------0-0---0-0-0---------------------------
E-----------------------------------------------------------------------
        x x                             x x

e-----------------------------------------------------------------------
B-----------------------------------------------------------------------
G-----------------------------------------------------------------------
D---------------------------2---2-2-4---4-4-4---4-----------------------
A---5---5-5-5---5-4-4-4-4-4-0---0-0-2---2-2-2---2-----------------------
E---3---3-3-3---3-2-2-2-2-2---------------------------------------------
        x x     x   x   x x     x x     x x     x

e-----------------------------------------------------------------------
B---/7\5h3--------------------------------------------------------------
G----------4-2----------------------------------------------------------
D--------------4-3-2-0--------------------------------------------------
A-----------------------------------------------------------------------
E-----------------------------------------------------------------------






DOWNLOAD THIS TAB IN GUITAR PRO



  • click 'Free Download'
  • add your e-mail address
  • you will get an e-mail with your download links (in a few seconds)
  • download the Guitar Pro 6 tab + GP5 + PDF for free
  • and that's all ...


Guitar Pro: a complete workshop for guitarists at an affordable price