20181124

KNOCKIN ON HEAVENS DOOR ACOUSTIC SOLO TAB


Bob Dylan - Knockin' On Heavens Door acoustic cover played by Junik
There is a nice acoustic guitar solo around 2:25 in this video
Half-step down tuning, download the TAB below



KNOCKIN ON HEAVENS DOOR ACOUSTIC SOLO TAB


 ~ 2:25 - 2:50

eb----------------------------------------------------------------------
Bb------3h5-3~-------5--3--5/8-/10~-------------------------------------
Gb----------------------------------------------------------------------
Db----------------------------------------------------------------------
Ab----------------------------------------------------------------------
Eb----------------------------------------------------------------------


eb----------------------------------------------------------------------
Bb---8-10-8-10(12)-10(12)---------(10)p8--------------------------------
Gb----------------------------------------------------------------------
Db----------------------------------------------------------------------
Ab----------------------------------------------------------------------
Eb----------------------------------------------------------------------


eb-----------7-/12---10-------------------------------------------------
Bb------8-10--------------12---10-8h10~---------------------------------
Gb----------------------------------------------------------------------
Db----------------------------------------------------------------------
Ab----------------------------------------------------------------------
Eb----------------------------------------------------------------------



eb---------------7-10--7------------------------------------------------
Bb-------10-8-10----------10--8--10--/12--10~---------------------------
Gb-----9----------------------------------------------------------------
Db----------------------------------------------------------------------
Ab----------------------------------------------------------------------
Eb----------------------------------------------------------------------


eb----------7-/12p10-12-10~---12---15---12-15-17~--17~--17~--17~--------
Bb-----8h10-------------------------------------------------------------
Gb----------------------------------------------------------------------
Db----------------------------------------------------------------------
Ab-----------------------------------------------------------  etc.  ---
Eb----------------------------------------------------------------------

 etc ...