20181105

O SOLE MIO CLASSICAL GUITAR TAB (GIANNI PALAZZO)


O Sole Mio classical guitar arrangement played by Gianni Palazzo
The low E and the A strings are tuned down D and G
Download the TAB under the video



O SOLE MIO CLASSICAL GUITAR TAB

PDF >>

 - Open G6 tuning (DGDGBE) -
Part 1

e-------3----3--------2-------------------------------------------------
B------------------5-----3----------------------------------------------
G---------------5----------------4-----------4--------------------------
D-----------------------------4----4-2-----2---2p0----------------------
G------------------------0-----------------------0----------------------
D------------0-----------------------0----------------------------------


e-------2----2--------0-------------------------------------------------
B------------------0--2--1----------------------------------------------
G---------------0-----0----------0--------------------------------------
D-----------------------------2----2--------4---------------------------
G------------4--------3--2---------------7----7\-5~---------------------
D------------------------------------0----------------------------------


e-------2----2--------0--0----------------------------------------------
B---------------------------------3--3--------1--0----------------------
G---------------2--------------0----------------------------------2-----
D---------------------------2-----------0--4--------0-----0-------------
G------------5-----4-----2-----------------------------6-----5----------
D------------------------------------0--------2--4----------------------



e-----------------------------------------------------------------------
B---------------0-------------------------------------------------------
G---0-----0-h2----------------------------------------------------------
D---0--0----------------------------------------------------------------
G---4-----------------0--2-/-4------------------------------------------
D---0--------------0----------------------------------------------------


Part 2

e--------10~--/--8--------7--5-----------3------------------------------
B----------------------4-----------------0------------------------------
G----------------------5-----------2-p0-----0------------   etc.   -----
D-------------------4-----------0--------------0------------------------
G----------------------------0--------------------4---------------------
D----------------0------------------------------------------------------