20181203

RELEASE ME TAB (INSTRUMENTAL GUITAR TABS)


Engelbert Humperdinck - Release Me instrumental guitar cover by Burns Ernst
Easy guitar instrumental with backing track
Download the TAB under the video



RELEASE ME INSTRUMENTAL GUITAR TAB

GP5 + GP6 + PDF >>

Part 1

e-----------------------------------------------------------------------
B-----------------------------------------------------------------------
G---5~----------4-3--2-----5---3----------------------------------------
D-----------------------------------------------------------------------
A---------------------------------5~------------------------------------
E-----------------------------------------------------------------------


e-----------------------------------------------------------------------
B------------------------------------------1----------------------------
G------------------------------3~------3-----2~-------------------------
D-----0---1-2~----------0-----------------------------------------------
A---------------------------3-------------------------------------------
E-----------------------------------------------------------------------


e-----------------------------------------------------------------------
B-----------------------------------------------------------------------
G---/5---5~----------4-3--2----5--3-------------------------------------
D-----------------------------------------------------------------------
A-------------------------------------5~--------------------------------
E-----------------------------------------------------------------------



e-----------------------------------------------------------------------
B-----3---2--------------------------------------------------  etc.  ---
G-----------5--2~-----------3-2-----------------------------------------
D--------------------------------------2---5---3~-----------------------
A--------------------------------3~-------------------------------------
E-----------------------------------------------------------------------

 etc ...