20181227

THE HYPNOPHONICS SCREAM TAB (WET SOUNDTRACK)


The Hypnophonics - Scream is one of the crazy WET Soundtracks
Powerful punk rock guitar playing in standard tuning
Download the TAB under the video



THE HYPNOPHONICS SCREAM TAB

GP5 + GP6 + PDF >>

Intro

e-----------------------------------------------------------------------
B-----------------------------------------------------------------------
G-----------------------------------------------------------------------
D-----------------------------------------------------------------------
A---------------1---2---x-1-1-x-----------------1---2---x-1-1-x---------
E---0---3-3-3-x-----------------3---0---3-3-3-x-----------------3-------


e-----------------------------------------------------------------------
B-----------------------------------------------------------------------
G-----------------------------------------------------------------------
D-----------------------------------------------------------------------
A---------------1---2---x-1-1-x-----------------1---2---x-1-1-x---------
E---0---3-3-3-x-----------------3---0---3-3-3-x-----------------3-------


e-----------------------------------------------------------------------
B-----------------------------------------------------------------------
G---------------------------------------------------------0---0-0-0-----
D---------------1---2---2-1-1-x-----------------1---2---x---------------
A---0---3-3-3-x-----------------3---0---3-3-3-x-------------------------
E-----------------------------------------------------------------------



e-----------------------------------------------------------------------
B-----------------------------------------------------------------------
G-----------------------------------------------------------------------
D-----------------------------------------------------------------------
A---------------1---2---x-1-1-x-----------------1---2---x-1-1-x---------
E---0---3-3-3-x-----------------3---0---3-3-3-x-----------------3-------


e-----------------------------------------------------------------------
B---x-x-7.--7---x-x-7---x-7---x-7---x-x-5.--5---x-x-8---x-8---x-8-------
G---x-x-7.--7---x-x-7---x-7---x-7---x-x-5.--5---x-x-8---x-8---x-8-------
D---x-x-7.--7---x-x-7---x-7---x-7---x-x-5.--5---x-x-8---x-8---x-8-------
A---x-x-5.--5---x-x-5---x-5---x-5---x-x-3.--3---x-x-6---x-6---x-6-------
E-----------------------------------------------------------------------


e-----------------------------------------------------------------------
B-----------------------------------------------------------------------
G-----------------------------------------------------------------------
D-----------------------------------------------------------------------
A---------------1---2---x-1---x-----------------------------------------
E---0---3-3-3-x-----------------3---0---0-0-0-0-0-0-12\11\10\9\8\7\6\5\-


 ... etc.






DOWNLOAD THE COMPLETE TAB HERE



  • click 'Free Download'
  • add your e-mail address
  • you will get an e-mail with your download links (in a few seconds)
  • download the Guitar Pro 6 tab + GP5 + PDF for free
  • and that's all ...


Guitar Pro: a complete workshop for guitarists at an affordable price