20181208

THE POWER OF YOUR LOVE TAB (ACOUSTIC FINGERSTYLE)


Hillsong - The Power Of Your Love fingerstyle guitar cover by Marcel Tiemensma
Amazing classical guitar arrangement in standard tuning
The first part up to 1:47 is transcribed
Download the TAB under the video



THE POWER OF YOUR LOVE TAB

GP5 + GP6 + PDF >>

Part 1

e-----------------------------------------------------------------------
B-------9-10-12---7---5---5-7-9-----7-----------------------------------
G-------------------------------8-9-------------------------------------
D-----------------------------------------------------------------------
A-----------------6---4-------------------------------------------------
E---0-------------------------7-----------------------------------------


e---------------------0-------9---7-------------------------------------
B---5-----5-7-5-------2-------7---7-------------------------------------
G---6---8---------4---2-------8---8-------------------------------------
D---------------6-------------------------------------------------------
A---0-------------------------------------------------------------------
E-------------4-------2---2-2-7-----------------------------------------


e-----------------0-----------------------------------------------------
B-------------7.--0----------------0------------------------------------
G-----------4-----1-----1---1-1-2---------------------------------------
D-------6-7-----------2---2-2-------------------------------------------
A-----------6-----4---------4-------------------------------------------
E---0-------------------------------------------------------------------



e-----------------------------------------------------------------------
B---------------7-5---------5--4-4--------------------------------------
G---4-------4-----------4---4----4---6----------------------------------
D-----4---4-4---------6---6-6----4--------------------------------------
A-------6-----------4-------4-------------------------------------------
E---4-------4--------------------7--------------------------------------


e-----------------------------------------------------------------------
B-----------------------------------------------------------------------
G---6~------------------------------------------------  etc.  ----------
D-------------2/-6-4----------------------------------------------------
A---0-0-0-0-0--------2-2---2-2------------------------------------------
E-----------------------------------------------------------------------






DOWNLOAD THIS TAB IN GUITAR PRO



  • click 'Free Download'
  • add your e-mail address
  • you will get an e-mail with your download links (in a few seconds)
  • download the Guitar Pro 6 tab + GP5 + PDF for free
  • and that's all ...


Guitar Pro: a complete workshop for guitarists at an affordable price