20181230

WHEN YOU SAY NOTHING AT ALL FINGERSTYLE TAB


You Say It Best When You Say Nothing At All fingerstyle cover by Michael Chapdelaine
Amazing guitar arrangement in Dropped D tuning with Capo on the 1st fret
It sounds like 432 Hz instead of 440 Hz
Download the TAB under the video



WHEN YOU SAY NOTHING AT ALL FINGERSTYLE TAB

PDF + GUITAR PRO >>

- Capo on the 1st fret -

Intro

e-------------------0---------------------------------------------------
B----------------3--------------3-----------3---------------------------
G-------------2--------------6-----------6-----------6--6h7-------------
D--------0----------------7-----------7-----------7---------------------
A---0h2----------------0-----------------------0------------------------
D----------0-----------------------5------------------------------------
    x x  x x           x           x           x  


e---------------0-------------------------------------------------------
B-------------------------------3---------------3-----------------------
G-----------7---------------6---------------6---------------6-----------
D-------7---------------7---------------7---------------7---------------
A-------------------0-------------------------------0-----------0h2-----
D---0-------------------------------5-----------------------------------
    x               x               x               x           x x


Verse

e-------0h2-0h2-0h2-----2p0---------------------------------------------
B-----------3---------------3.--3---------------0h2-----2p0-------------
G-------2-------2-------2---2.--2-------2---2.----------------2.--2-----
D-----------------------------------------------2-------2---------------
A-------------------0-------------------------------0-------------------
D---0-------------------------------5-----------------------------------
    x               x               x               x



e---------------0-------------------------------------------------------
B-----------3-------------------3---------------3-----------------------
G-------2-------------------6---------------6---------------6-----------
D-----------------------7---------------7---------------7---------------
A-------------------0-------------------------------0-----------0h2-----
D---0-------------------------------5-----------------------------------
    x               x               x               x           x x


e-------0h2-0h2-0h2-----2p0-------------------------0h2-0---------------
B-----------3---------------3.--3---------------------------3h5-3-------
G-------2-------2-------2---2.--2-------2-------2.--2---2---2---2-------
D-----------------------------------------------------------------------
A-------------------0-------------------------------0-------------------
D---0-------------------------------5-------x---------------------------
    x               x               x               x


e---------------0-------------------------------------------------------
B-------5/7---------------------3---------------3-----------------------
G---------------------------6---------------6---------------------------
D-----------7-----------7---------------7---------------7---------------
A-------------------0-------------------------------0-------x-----------
D---0-------------------------------5-----------------------------------
    x       x       x               x               x          


 ... etc.