20190131

ACOUSTICIAN COMFORTABLY NUMB SOLO TAB (JUHA JARVINEN)


Pink Floyd - Comfortably Numb guitar solo cover played by Acoustician
It's in standard tuning and the chords are included too
Download the TAB under the video



COMFORTABLY NUMB ACOUSTIC SOLO TAB

GP5 + GP6 + PDF >>

e-----------------------------------------------------------------------
B-----------------------------------------------------------------------
G-----7---9.-9/11~~~----------------------------------------------------
D-----x-----------------------------------------------------------------
A-----x-----------------------------------------------------------------
E-----------------------------------------------------------------------


e-----------------------------------------------------------------------
B-----------------------------------------------------------------------
G---9/11----\--9p7---7-9.-9~-----7---7.---------------------------------
D------------------9---------------9------------------------------------
A-----------------------------------------------------------------------
E-----------------------------------------------------------------------


e------------------------------------------------10.--------------------
B-------------10--10~----12.--15~-------12p10h12------------------------
G-------/11-----11------------------------------------------------------
D-----------------------------------------------------------------------
A-----------------------------------------------------------------------
E-----------------------------------------------------------------------



e-----------------------------------------------------------------------
B-----------------------------------------------------------------------
G-------7.--9.--9(11)-(9)p7---------------------------------------------
D---------------------------9~~~----------------------------------------
A-----------------------------------------------------------------------
E-----------------------------------------------------------------------


e-----------------------------------------------------------------------
B----10-7---7-----------------------------------------------------------
G----x----9---9p7-------------------------------------------------------
D----x------------9~~~--------------------------------------------------
A-------------------------------------------------  ... etc.   ---------
E-----------------------------------------------------------------------






DOWNLOAD THE COMPLETE TAB HERE



  • click 'Free Download'
  • add your e-mail address
  • you will get an e-mail with your download links (in a few seconds)
  • download the Guitar Pro 6 tab + GP5 + PDF for free
  • and that's all ...