20190106

JUST WALK ON BY TAB (INSTRUMENTAL GUITAR TABS)


Leroy Van Dyke - Just Walk On By instrumental guitar cover by George Cress
Easy guitar instrumental with backing track
Download the TAB under the video



JUST WALK ON BY INSTRUMENTAL TAB

GP5 + GP6 + PDF >>

e-----------------------------------------------------------------------
B-----------------------------------------------------------------------
G-----------------------------------0----2----0----0--------------------
D-------------0---0-2---2-3----3-----------------------------0----------
A-------3---3-----------------------------------------------------------
E-------------------------------------------------------3---------------


e-----------------------------------------------------------------------
B-----------------------------------------------------------------------
G-----------------------------------------------------------------------
D------------5/7---5----------------------------------------------------
A---3~---------------7--\5-3~-------------------------------------------
E-----------------------------------------------------------------------


Part 1

e-----------------------------------------------------------------------
B-----------------------------------------------------------------------
G------------2-4---5~--------4.---2---4----2~---------------------------
D-----------------------------------------------------------------------
A-----------------------------------------------------------------------
E-----------------------------------------------------------------------



e-----------------------------------------------------------------------
B-----------------------------------------------------------------------
G-----------------------------------------------------------------------
D---0----0-0---0------0---2~--------------------------------------------
A----------------3------------------------------------------------------
E-----------------------------------------------------------------------


e-----------------------------------------------------------------------
B-----------------------------------------------------------------------
G-------------------0---2-----------------------------------------------
D------0-2---3-----------------3---0.---0-----------0---2~--------------
A---------------------------------------------3-------------------------
E-----------------------------------------------------------------------


e-----------------------------------------------------------------------
B-----------------------------------------------------------------------
G---2-----4--/--5-----5-----4h5p4-2---4-----2~--------------------------
D-----------------------------------------------------------------------
A-----------------------------------------------------------------------
E-----------------------------------------------------------------------


e-----------------------------------------------------------------------
B-----------------------------------------------------------------------
G-----------------------------------------------------------------------
D---0----0-0---0------0---2~--------------------------------------------
A----------------3------------------------------------------------------
E-----------------------------------------------------------------------


e-----------------------------------------------------------------------
B-----------------------------------------------------------------------
G-------------------0---2-----------------------------------------------
D------0-2---3-----------------3---0.---0-------------------------------
A---------------------------------------------3-----2---3~--------------
E-----------------------------------------------------------------------

 ... etc.






DOWNLOAD THIS TAB IN GUITAR PRO



  • click 'Free Download'
  • add your e-mail address
  • you will get an e-mail with your download links (in a few seconds)
  • download the Guitar Pro 6 tab + GP5 + PDF for free
  • and that's all ...


Guitar Pro: a complete workshop for guitarists at an affordable price