20190112

THE ENTERTAINER TAB (RICHARD SMITH)


Scott Joplin - The Entertainer fingerstyle guitar cover played by Richard Smith
It's arranged in Dropped D tuning and it's bloody hard to play ...
Download the TAB under the video



THE ENTERTAINER FINGERSTYLE TAB

GP5 + GP6 + PDF >>

- Dropped D tuning -
Part 1

e----------------------------------------------------0--1---------------
B----------------3--------3-------3---------------3---------------------
G---------------------------------4-------4----------0--1---------------
D---2----3----4-----4--4-------4----------5-----------------------------
A---4---------------------0---------------------------------------------
D-------------0----------------------5---------4------------------------


e---2-----0--2----------------------------------------------------------
B------3-----------2--5----3--------------------------------------------
G---2-----0--2-------------2--------------------------------------------
D------4-----------2--5----4--------------2--3--------------------------
A---0-----------0---------------0----2----4-----------------------------
D--------------------------0--------------------------------------------


e-----------------------------------------------------------------------
B------3--------3-------3-----------------0-----------------------------
G-----------------------4-------4------------2--------------------------
D---4-----4--4-------4----------5---------------------------------------
A---------------0-------------------------------------------------------
D---0----------------------5---------4----3-----------------------------



e------------2-----0--------0-------------------------------------------
B------0--3-----------3--0-------2--------------------------------------
G---1----------------------------0--------------------------------------
D---------0-----------x----------2---------2--3-------------------------
A---------------2-----------0---------2----4----------------------------
D---2-------------------------------------------------------------------


e------------------------------------------0--1-------------------------
B------3--------3-------3-------3-------3-------------------------------
G-----------------------4-------4----------0--1-------------------------
D---4-----4--4-------4----------5---------------------------------------
A---------------0-------------------------------------------------------
D---0----------------------5---------4----------------------------------


e---2-----0--2-----------------------2-------0--------------------------
B------3-----------2--5----3----3.---3----3-----------------------------
G---2-----0--2-------------2----2.---2----------------------------------
D------4-----------2--5----4----4.--------------------------------------
A---0-----------0-------------------------------------------------------
D--------------------------0--------------------------------------------

 ... etc.






DOWNLOAD THIS TAB IN GUITAR PRO



  • click 'Free Download'
  • add your e-mail address
  • you will get an e-mail with your download links (in a few seconds)
  • download the Guitar Pro 6 tab + GP5 + PDF for free
  • and that's all ...