20190120

STILL LOVING YOU TAB (OZIELZINHO)


Scorpions - Still Loving You electric guitar cover played by Ozielzinho
It's arranged in 1 step down tuning with backing track
Download the TAB under the video



STILL LOVING YOU ELECTRIC GUITAR TAB

GP5 + GP6 + PDF >>

- 1 step down tuning -

Intro

d-----------------------------------------------------------------------
A-----------------------------------------------------------------------
F-----\5p3-/7~-----5p3-3~~~---------------------------------------------
C-----------------------------------------------------------------------
G-----------------------------------------------------------------------
D-----------------------------------------------------------------------


d-----------------------------------------------------------------------
A------------------------------------7/8/10~~~--------------------------
F------3-5-3-5-5/7~~~---------------------------------------------------
C-----------------------------------------------------------------------
G-----------------------------------------------------------------------
D-----------------------------------------------------------------------


Verse

d-----------------------------------------------------------------------
A-----------------------------------------------------------------------
F----/7~------------\---------7\5p3-/7~---------------------------------
C-----------------------------------------------------------------------
G-----------------------------------------------------------------------
D-----------------------------------------------------------------------



d-------/6----6----6----------------------------------------------------
A---3------------------/11---10h11p10-----------------------------------
F---------------------------------------12------------------------------
C--------------------------------------------12~------------------------
G-----------------------------------------------------------------------
D-----------------------------------------------------------------------


d-----------------------------------------------------------------------
A-----------------------------------------------------------------------
F---/7----\5-p3~---/6~--------------------------------------------------
C-----------------------------------------------------------------------
G-----------------------------------------------------------------------
D-----------------------------------------------------------------------


d-----------------------------------------------------------------------
A-----------------------------------------------------------------------
F---/6~---------\4\2/7~~~-----------------------------------------------
C-----------------------------------------------------------------------
G-----------------------------------------------------  etc.  ----------
D-----------------------------------------------------------------------






DOWNLOAD THIS TAB IN GUITAR PRO



  • click 'Free Download'
  • add your e-mail address
  • you will get an e-mail with your download links (in a few seconds)
  • download the Guitar Pro 6 tab + GP5 + PDF for free
  • and that's all ...


Guitar Pro: a complete workshop for guitarists at an affordable price