Versace On The Floor TAB (PDF) Joseph Vincent


Bruno Mars - Versace On The Floor acoustic guitar cover by Joseph Vincent
This transcription is in Standard tuning though he uses Half-step down tuning
Available formats: PDF (Free Download), Guitar Pro 5, Guitar Pro 6, Guitar Pro 7
Also for Beginner guitar players



VERSACE ON THE FLOOR ACOUSTIC TAB


Verse

e-----------------------------------------------------------------------
B-----------------------------------3-------3-------3-------3-----------
G---4-------4-------4-------4-------2-------2-------2-------2-----------
D---5-------5-------5-------5-----------4-------4-------4-------4.------
A-------5-------5-------5-------5.--2-----------------------------------
E---3-------------------------------------------------------------------


e-----------------------------------------------------------------------
B-----------------------------------5-------5-------4-------4-----------
G---0-------0-------0-------0-------5-------5-------3-------3-----------
D---2-------2-------2-------2-----------5---------------5-------5.------
A-------2-------2-------2-------2.--3-----------3---3-------------------
E---0-------------------------------------------------------------------


e-----------------------------------------------------------------------
B-----------------------------------3-------3-------3-------3-----------
G---4-------4-------4-------4-------2-------2-------2-------2-----------
D---5-------5-------5-------5-----------4-------4-------4-------4.------
A-------5-------5-------5-------5.--2-----------------------------------
E---3-------------------------------------------------------------------



e-----------------------------------------------------------------------
B-----------------------------------5-------5-------4-------4-----------
G---0-------0-------0-------0-------5-------5-------3-------3-----------
D---2-------2-------2-------2-----------5---------------5-------5.------
A-------2-------2-------2-------2.--3-----------3---3-------------------
E---0-------------------------------------------------------------------


Pre-Chorus

e-----------------------------------------------------------------------
B---3-------3-------3-------3-------------------------------------------
G---2-------2-------2-------2-------1-------1-------1-------1-----------
D-------4-------4-------4-------4.--2-------2-------2-------2-----------
A---2-----------------------------------2-------2-------2-------2.------
E-----------------------------------0-----------------------------------


e-----------------------------------------------3-----------------------
B---1-------1-------1-------1-------4-------------------4---------------
G---0-------0-------0-------0-------3-----------------------3-----------
D-------2-------2-------2-------2.------5----------------------5.-------
A---0-------------------------------3-------3---------------------------
E-----------------------------------------------------------------------

 ... etc.