20190211

DON'T FORGET TO REMEMBER TAB (BURNS ERNST)


Bee Gees - Don't Forget To Remember instrumental guitar cover by Burns Ernst
Easy guitar instrumental with backing track
Download the TAB under the video



DON'T FORGET TO REMEMBER INSTRUMENTAL TAB

GP5 + GP6 + PDF >>

Part 1

e-----------------------------------------------------------------------
B-----------------------------------------------------------------------
G-----------------------------------------------------------------------
D-----------2~-------------2-3~---------3-2-----------------------------
A---3-/-5--------------5--------------------2-5-3~----------------------
E-----------------------------------------------------------------------


e-----------------------------------------------------------------------
B-----------------------------------------------------------------------
G-----------------------------------------------------------------------
D------------------------------7-10~---------9---7----------------------
A-----------7-7-8~---------8-----------------------7--10~---------------
E-----------------------------------------------------------------------


e-----------------------------------------------------------------------
B-----------------------------------------------------------------------
G-----------------------------------------------------------------------
D-----------7-/-9---10~---------9---10\-5--------------5-7~-------------
A-------------------------------------------7-8~------------------------
E-----------------------------------------------------------------------



e-----------------------------------------------------------------------
B-----------------------------------------------------------------------
G-----------------------------------------------------------------------
D------------------9---7-5~---------5-\-4-3~---------2------------------
A---8-\-5~-----------------------------------------------5-3~-----------
E-----------------------------------------------------------------------


Part 2

e-----------------------------------------------------------------------
B----------------5~-------4-/-5---6-----5-------------------------------
G------------5---5~-------4-/-5---5-----5-------------------------------
D--------5--------------------------------5~----------------------------
A-----------------------------------------------------------------------
E-----------------------------------------------------------------------


e-----------------------------------------------------------------------
B-------5-5-4-----5-5h6-----5--------------3---2~-----3-5-----3---------
G-------5-5-4-----5-5-------5--------------4---3~-----4-5-----4---------
D-----------------------------5~--------------------------------5-------
A-----------------------------------------------------------------------
E-----------------------------------------------------------------------


e-----------------------------------------------------------------------
B---3\1---1h3-1~-------5------------------------------------------------
G---4\2---2---2~-------5------------------------------------------------
D----------------------5------------------------------------------------
A-----------------------------------------------------------------------
E-----------------------------------------------------------------------


 ... etc.






DOWNLOAD THIS TAB IN GUITAR PRO



  • click 'Free Download'
  • add your e-mail address
  • you will get an e-mail with your download links (in a few seconds)
  • download the Guitar Pro 6 tab + GP5 + PDF for free
  • and that's all ...