20190216

TOP OF THE WORLD TAB (DAISUKE MINAMIZAWA)


The Carpenters - Top Of The World fingerstyle guitar cover by Daisuke Minamizawa
It's in Dropped D tuning with Capo on the 3rd fret
Download the TAB under the video



TOP OF THE WORLD FINGERSTYLE TAB

GP5 + GP6 + PDF >>

 - CAPO on the 3rd fret -
Part 1

e-----------------------------------------------------------------------
B-------------------0-------0-----------0-------------------------------
G-----------0.--2.----------------4h5-------2.--0.----------------------
D-------4.--2.--4.------0-------0-------0-------------------------------
A-------5.----------------------------------0.--2.----------------------
D-------------------5-------5-------5-----------------------------------


e-----------------------------------------------------------------------
B-----------------------------------------------------------------------
G-------0-----0---0h2---0-------0---------------------------------------
D---2---2-------2-------2---0h2-2---------------------------------------
A---3-------3-------3-------3-------------------------------------------
D-----------------------------------------------------------------------


e---------------------------------------------------3-------------------
B-------0-------------------------------------0-----0-------------------
G-----------2---0-------------------0-----0---------0-------------------
D---0---0-------0---4-------2.--4.------0-------0-----------------------
A-------------------5---5\--3.--5.--------------------------------------
D---5-------5-----------------------5-------5-------5-------------------



e-----------------------------------------------------------------------
B---0-----0-1-------0-----0-1-------0-----0-1-------0.------------------
G-------------2---------------2---------------2-------------------------
D-------0-------0-------0-------0-------0-------0-----------------------
A---------------------------------------------------------------0-------
D---5-------0-------5-------0-------5-------0-------5.--4---5-----------


Part 2

e-----------------------------------------------------------------------
B-------0---------------------------------------------------0.--1.------
G-----------2-0---------0-------------------------0---------------------
D---0---0-------0-4---------2h4.--0-----------0-------0-----------------
A-------------------5-------3-----------5-------5-------5-------0.------
D---5-------5----------------------h5-------5-------5-------5.----------


 ... etc.




DOWNLOAD THE COMPLETE TAB HERE



  • click 'Free Download'
  • add your e-mail address
  • you will get an e-mail with your download links (in a few seconds)
  • download the Guitar Pro 6 tab + GP5 + PDF for free
  • and that's all ...


Guitar Pro: a complete workshop for guitarists at an affordable price