20190310

ACOUSTICIAN LAYLA SOLO TAB (JUHA JARVINEN)


Eric Clapton - Layla acoustic guitar solo cover played by Acoustician
It's in standard tuning with a rhythm guitar backing track
Download the TAB under the video



LAYLA ACOUSTIC SOLO TAB

GP5 + GP6 + PDF >>

e------5-5-----5.--5-5-----5--------------------------------------------
B------6-6-----6.--6-6-----6--------------------------------------------
G------------7-----------7-------7-5------------------------------------
D--------------------------------x---7-6-5-3-5p3------------------------
A--------------------------------x---------------5~---------/-----------
E-----------------------------------------------------------------------
                                       x x x

e-----------------------------------------------------------------------
B---/13-13-13-/13-13-13-/13-13-13-/13-13-13-/13-13-13-/13-13------------
G---/14-14-14-/14-14-14-/14-14-14-/14-14-14-/14-14-14-/14----14---------
D-----------------------------------------------------------------------
A-----------------------------------------------------------------------
E-----------------------------------------------------------------------


e--------------------------------10-12-10h12p10--10---------------------
B--------13-15.-------------10-13--------------13--13-10.--10.--10.-----
G---12h14--------12\10----12--------------------------------------------
D---------------------12------------------------------------------------
A-----------------------12----------------------------------------------
E-----------------------------------------------------------------------



e-----------------------------------------------------------------------
B--11~----10--\8--------------------------5-6-5h6p5---------------------
G----------------10.--9--\7/9-7~----5---5----------7-5------------------
D-------------------------------------7----------------7-6-5\3-5p3------
A------------------------------------------------------------------5~--/
E-----------------------------------------------------------------------
                                    x x x              x x

e---13'--10~------------------------------------------------------------
B-----------------------------------------------------------------------
G-----------------------------------------------------------------------
D-----------------------------------------------------------------------
A-----------------------------------------------------------------------
E-----------------------------------------------------------------------

 etc ...









DOWNLOAD THE COMPLETE TAB HERE



  • click 'Free Download'
  • add your e-mail address
  • you will get an e-mail with your download links (in a few seconds)
  • download the Guitar Pro 6 tab + GP5 + PDF for free
  • and that's all ...